Taylor Swift – Invisible String Intro Tabs

Invisible String is a new single from the album folklore released on 24th July 2020. The song is on the G major key.

Invisible String Intro Tabs,
Invisible String Intro Tabs,

Key: G

    G6             F#7sus(b13)   Em7             Bm(b6)
e|-----------0-------------0-------------3----------------------|
B|---------3---3-3-------3---3-3-------3---3-3-----------3------|
G|-------4------4------4------4------4------4----------4---3-3--|
D|---5--------------4-------------2------------------5------5---|
A|------------------------------------------------2-------------|
E|--------------------------------------------------------------|

G6 F#7sus(b13) Em7 Bm(b6)
e|-----------0-------------0-------------3----------------------|
B|---------3---3-3-------3---3-3-------3---3-3-----------3------|
G|-------4------4------4------4------4------4----------4---3-3--|
D|---5--------------4-------------2------------------5------5---|
A|------------------------------------------------2-------------|
E|--------------------------------------------------------------|

Yo can also play this Tab throgh out the song.

Learn to play 

Invisible String by Taylor Swift

Leave a Reply

Loading...