Taylor Swift – Willow Tab for Guitar

willow Tab

Willow Track Info

 
[Intro] play through out the song except on chorus
Em D Em D

e|--------3p2--2----------2p0--0---------3p2--2---------2p0--0--|
B|--------0----0-------3--3----3---------0----0------3--3----3--|
G|-----0--0----0-----2----2----2------0--0----0----2----2----2--|
D|-----------------0-----------------------------0--------------|
A|---2------------------------------2---------------------------|
E|-0------------------------------0-----------------------------|

Em D C
e|--------3p2--2---------2p0--0----------------|
B|--------0----0------3--3----3--1p0---0h1-----|
G|-----0--0----0----2----2----2--0---2---------|
D|----------------0--------------2-------------|
A|---2---------------------------3-------------|
E|-0-------------------------------------------|

*************
P: pull-of

h: hammer-on
*************
Evermore (Deluxe Edition)
Willow Chords
Evermore Chords
Champagne Chords
Gold Rush Chords
No Body No Crime Chords
‘Tis The Damn Season Chords
Happiness Chords
Dorothea Chords
Marjorie chords
Cowboy Like Me Chords

Leave a Reply

Loading...