Tennessee Whiskey Intro tab by Chris Stapleton

Tennessee Whiskey Tab

Track Info

                              
e|--------------------|-----------------------|----------------------|
B|--------------------|---------------3-3-3-3-|-3/5-5-5-5\3-3-3-3-3--|
G|------------6-7-7-6-|---------------4-4-4-4-|-4/6-6-6-6\4-4-4-4-4--|
D|------------7-7-7-7-|---------------4-4-4-4-|-2/4-4-4-4\2-4-4-4-4--|
A|-----0--2/4-7-5-5-7-|-2/4\2-0-2/4\2-2-2-2-2-|-2/4-4-4-4\2-2-2-2-2--|
E|-0-2--------5-----5-|-----------------------|----------------------|
 
              
e|---------------------|
B|---------------------|
G|------------6-7-7----|
D|------------7-7-7-7--|
A|-2/4\2-0-0--7-5-5-7--|
E|------------5-----5--|
 
 
 
#################
| /   Slide up
| \   Slide down
#################

Leave a Comment

Your email address will not be published.


Scroll to Top