The Chats – Boggo Breakout Bass Tab

The track was released on the 19th of August 2022. The bass in the track was played by Eamon Sandwith. The Guitar in this track was played by Josh Hardy (Guitarist).

Boggo Breakout

Track Info

  • Song: Boggo Breakout
  • Artist: The Chats
  • Release Date: August 19, 2022

Track Info

  • Tuning: Standard(E A D G )
  • BPM:
  • Key:
[Intro]
  
  1 + 2 + 3 + 4 +  1 + 2 + 3 + 4 +
G|----------------|----------------|
D|----------------|----------------|
A|----------7---5-|--5-5---7-5-7---| x2
E|7---7-----------|----------------|
 
 
[Verse 1]
 
  1 + 2 + 3 + 4 +  1 + 2 + 3 + 4 +
G|----------------|----------------|
D|----------------|----------------|
A|----------7---5-|--5-5---7-5-7---|x4
E|7---7-----------|----------------|
 
 
[Chorus]
 
  1 + 2 + 3 + 4 +  1 + 2 + 3 + 4 +  1 + 2 + 3 + 4 +  1 + 2 + 3 + 4 +
G|----------------|----------------|----------------|----------------|
D|----------------|----------------|----------------|----------------|
A|----------------|7---7-7-7-7-7-5-|--5-5-5-5-5-5-7-|--7-7-7-7-7-7-7-|x2
E|5---5-5-5-5-5-5-|----------------|----------------|----------------|
 
 
[Interlude]
 
  1 + 2 + 3 + 4 +  1 + 2 + 3 + 4 +
G|----------------|----------------|
D|----------------|----------------|
A|----------7---5-|--5-5---7-5-7---|x4
E|7---7-----------|----------------|
 
 
[Verse 2]
 
  1 + 2 + 3 + 4 +  1 + 2 + 3 + 4 +
G|----------------|----------------|
D|----------------|----------------| 
A|----------7---5-|--5-5---7-5-7---|x4
E|7---7-----------|----------------|
 
 
[Chorus]
 
  1 + 2 + 3 + 4 +  1 + 2 + 3 + 4 +  1 + 2 + 3 + 4 +  1 + 2 + 3 + 4 +
G|----------------|----------------|----------------|----------------|
D|----------------|----------------|----------------|----------------| 
A|----------------|7---7-7-7-7-7-5-|--5-5-5-5-5-5-7-|--7-7-7-7-7-7-7-|x2
E|5---5-5-5-5-5-5-|----------------|----------------|----------------|
 
 
[Guitar Solo]
 
  1 + 2 + 3 + 4 +  1 + 2 + 3 + 4 +
G|----------------|----------------|
D|----------------|----------------| 
A|----------7---5-|--5-5---7-5-7---|x8
E|7---7-----------|----------------|
 
 
[Chorus]
 
  1 + 2 + 3 + 4 +  1 + 2 + 3 + 4 +  1 + 2 + 3 + 4 +  1 + 2 + 3 + 4 +
G|----------------|----------------|----------------|----------------|
D|----------------|----------------|----------------|----------------|
A|----------------|7---7-7-7-7-7-5-|--5-5-5-5-5-5-7-|--7-7-7-7-7-7-7-|x4
E|5---5-5-5-5-5-5-|----------------|----------------|----------------|
 
 
[Outro]
 
  1 + 2 + 3 + 4 +  1 + 2 + 3 + 4 +  1 + 2 + 3 + 4 +
G|----------------|----------------|----------------|
D|----------------|----------------|----------------|
A|--------7-7-7---|5---5---7-7-7---|----------------|
E|5---5-----------|----------------|5---------------|

If you like the work please write down your experience in the comment section, or if you have any suggestions/corrections please let us know in the comment section.

Leave a Comment

Your email address will not be published.


Scroll to Top