The Dripping Tap Intro tab by King Gizzard & The Lizard Wizard

Stu Mackenzie produced this track was released on the 9th of March 2022.

The Dripping Tap Tab

Track Info

Key Info 

  • Tuning: Standard(EADGBE)
  • Key: D
  • BPM: 90
[Intro]
 
E|------------------------------------------------------|
B|------------------------------------------------------|
G|------------------------------------------------------|
D|-----------5-------------------------5----------------|
A|-0-5-5---7---0-5-5---7-5---0-5-5---7---0-5-5---7-5----|
D|-------0-----------0-------------0-----------0--------|
 
E|------------------------------------------------------|
B|------------------------------------------------------|
G|------------------------------------------------------|
D|-----------9-7-7-------------------5------------------|
A|-0-5-5---7-------5-7-5---0-5-5---7---0-5-5---7-5------|
D|-------0---------0-------------0-----------0----------|

Leave a Comment

Your email address will not be published. Required fields are marked *

This site uses Akismet to reduce spam. Learn how your comment data is processed.

Scroll to Top