Thered Better Be A Mirrorball Intro Tab by Arctic Monkeys

On the 29th of August 2022, the track was released, produced by James Ford.

There’d Better Be A Mirrorball

Track Info

Key Info

  • Tuning: Standard(EADGBe)
  • Key: E


[Intro]
 
e|--7--9--10--9--7-----7--9--|
B|---------------------------|
G|---------------------------|
D|---------------------------|
A|---------------------------|
E|---------------------------|
 
e|--7--9--10--9--7-----7--9--10--13-----|
B|--------------------------------------|
G|--------------------------------------|
D|--------------------------------------|
A|--------------------------------------|
E|--------------------------------------|
 
e|--10--12--13--12--10------------------------------|
B|----------------------11-----8--10--11--10--8-----|
G|-----------------------------------------------9--|
D|--------------------------------------------------|
A|--------------------------------------------------|
E|--------------------------------------------------|
 
e|-------------|      
B|-------------|      
G|--10--12--9--|      
D|-------------| x3   
A|-------------|      
E|-------------|   


e|-------------|
B|-------------|
G|--10--12-----|
D|----------12-|
A|-------------|
E|-------------|


Thered Better Be A Mirrorball Chords
Thered Better Be A Mirrorball Chords ver.2

Leave a Comment

Your email address will not be published.


Scroll to Top