TWICE (트와이스) – 선인장 Cactus bass tab

희장 (Coke paris) produced this track was released on the 12th of November 2021.

선인장 Cactus bass tab

Track Info

Key Info

  • Tuning: Drop Down D (D A D G)
  • Key: B
  • BPM: 170
[Intro & Verse]
 
No Bass   [Pre-Chorus] G|---------------------------------------------------------------------------------| D|---------------------------------------------------------------------------------| A|---------------------------------------------------------------------------------| D|-2/14\2~---4/16\4~----2/14\2~---4/16\4~----2/14\2~---4/16\4~----2/14\2~---4-4-4-4| [Chorus] G|------------------------------------------------------------------| D|------------------------------------------------------------------| A|------------------------------------------------------------------| D|-9-9-9-9-9-9-9-9-9-8-8-8-8-8-8-8-8-6-6-6-6-6-6-6-6-4-4-4-4-4-4-4-4| x2 G|-----------------------------------| D|-2-2-2-2-2-2-2-2-2-5-5-5-5-5-5-5-5-| A|-----------------------------------| D|-----------------------------------| [Verse 2] G|----------------------------------------------------------| D|----------------------------------------------------------| A|-2~-2~-1~-1~---------------2~-2~-1~-1~--------------------| D|--------------6~-6~-4~-4~---------------6/16/18\6-4/14/16~| [Pre-Chorus] G|----------------------------------------------------------------------------| D|----------------------------------------------------------------------------| A|----------------------------------------------------------------------------| D|-2/14\2~---4/16\4~----2/14\2~---4/16\4~----2/14\2~----4/16-----------4-4-4-4| [Chorus] G|--------------------------------------------------------------------| D|-----------------------------------------------------------------1-4| A|-------------------------------------------------------------1-2----| D|-9-9-9-9-9-9-9-9-9-8-8-8-8-8-8-8-8-6-6-6-6-6-6-6-6-4-4-4-2-4--------| G|------------------------------------------------------------------| D|------------------------------------------------------------------| A|------------------------------------------------------------------| D|-9-9-9-9-9-9-9-9-9-8-8-8-8-8-8-8-8-6-6-6-6-6-6-6-6-4-4-4-4-4-4-4-4|
[Bridge]
 
G|-----------------------------------------------------------------------------------------------|
D|-------------------------------------------2/7/9\2-----------2---------5-2-------------------16|
A|---------------------------------------------------------------2----------2-1--------2/17-19---|
D|-2-2-2-2-2-2-2/14~-4-4-4-4-4-2-0-2-2-2-2-2---------2-2-2-2-2-----0-2-2-------6-4-2-0-----------|
 
 
[Last Chorus]
 
First Line no bass
 
G|------------------------------------------------------------------------|
D|-----------------------------------------------------------2-5-7-9-7-5-2|
A|------------------------------------------------------------------------|
D|-9-9-9-9-9-9-9-9-9-8-8-8-8-8-8-8-8-6-6-6-6-6-6-6-6-4-4-4-4--------------|
 
G|---------------------------|
D|-------------------5-5-5-5-|
A|---------------------------|
D|-2-2-2-2-2-2-2-2-2---------|
 
 
********************* 
| \   Slide-down
| /   Slide-up
| ~   Let ring
*********************

Leave a Comment

Your email address will not be published.


Scroll to Top