Two Feet – Love Is A B*tch Intro tab

Two Feet produced this track, released on the 19th May 2017. The track is written by
K.Flay
 & Two Feet.

Love Is A Bitch

Track Info

[Intro]
e|---------------------------------------------------------------------------|
B|---------------------------------------------------8---10---8--------------|
G|-----5----7b-----------5-----9-------5~--------9------------------9---7---5|
D|-7-----------------7------------7------------------------------------------|
A|---------------------------------------------------------------------------|
E|---------------------------------------------------------------------------|
 
e|---------------------------------------------------------------------------|
B|---------------------------------------------------------------------------|
G|-7b---5--------------------------------------------------------------------|
D|----------7----------------------------------------------------------------|
A|---------------------------------------------------------------------------|
E|---------------------------------------------------------------------------|
 
================
 
| b   Bend
| ~   Vibrato
 
================

Leave a Reply

Loading...