Van Halen – Im The One Intro Tab

The song was Produced by Ted Templeman.

Im The One Intro Tab

Track Info

[Intro] Rhythm
 
e|---------------------------------------------------------------------------|
B|---------------------------------------------------------------------------|
G|---------------------------5-----------------------------------------------|
D|-------7-------5-------7---5--------7-------5-------7----------------------|
A|-0-0-0---0-0-0---0-0-0---0----0-0-0---0-0-0---0-0-0---0-3b-----------------|
E|---------------------------------------------------------------------------|
 
e|---------------------------------------------------------------------------|
B|----------5p0---------5p0--------------------------------------------------|
G|----5p0-------7p5p0-------7p5p0---5p0--------------------------------------|
D|-5------7-----------7-----------7-----7p5p0---7p5p0------------------------|
A|--------------------------------------------7------------------------------|
E|---------------------------------------------------------------------------|

e|---------------------------------------------------------------------------|
B|---------------------------------------------------------------------------|
G|---------------------------5-----------------------------------------------|
D|-------7-------5-------7---5--------7-------5-------7----------------------|
A|-0-0-0---0-0-0---0-0-0---0----0-0-0---0-0-0---0-0-0---0-3b-----------------|
E|---------------------------------------------------------------------------|
[Intro] e|----------------------------------------------------------------------------------| B|----------------------------------------------------------------------------------| G|---------------4h5----4-5-7--4h5---4-5-7--4h5---4-5-7--4h5---5--------------------| D|--------4h5-7------7-------------7------------7------------7---5h7-4-5---4--------| A|-4h5-7-----------------------------------------------------------------7---5------| E|----------------------------------------------------------------------------------| ================ | p Pull-off | h Hammer-on | b Bend ================

Leave a Comment

Your email address will not be published. Required fields are marked *

This site uses Akismet to reduce spam. Learn how your comment data is processed.

Scroll to Top