VANO 3000 – Running Away bass tab

On the 21st of June 2021, the track is released which is produced by VANO 3000. The track also features Samuel T. Herring & BADBADNOTGOOD.

Running Awaqy Bass Tab

Track Info

[Main Riff]
 
G|-------10-10-----------9-9-7---------
D|----10-------10------9-------7-9-9\--
A|-8--------------8-7------------------
E|-------------------------------------

--------------------10-10----------9-9|
-----------------10-------10-----9----|
----------6-7-8--------------8-7------|
-7--9-10------------------------------|
G|-7----------------------------------| D|---7-9-9\---------------------------| A|--------------------6-7-------------| E|-----------7--9-10------------------|

[Loop] G|---------------------------------- D|---------------------------------- A|--------10---------10---------10-- E|-7--10------7--10------7--10------

-----------------------------------------|
-----------------------------------------|
--------10----------10----------10-------|
-7--10-----7-7--10-----7-7--10-----7-7---|
G|---------------------------------------| D|---------------------------------------| A|-----10----------10--------------------| E|-10-----7-7--10-----7------------------|


[Main Riff]

G|-------10-10-----------9-9-7---------
D|----10-------10------9-------7-9-9\--
A|-8--------------8-7------------------
E|-------------------------------------

--------------------10-10----------9-9|
-----------------10-------10-----9----|
----------6-7-8--------------8-7------|
-7--9-10------------------------------|


G|-7----------------------------------|
D|---7-9-9\---------------------------|
A|--------------------6-7-------------|
E|-----------7--9-10------------------|


**************
| \Slide down
**************

Leave a Reply

Loading...