Wilbur Scoot – Jubilee Line Intro Tab

Jubilee Line Intro Tab

Jubilee Line Track Info

[Intro]
 
D|--------------------------------------------------------------------|
B|-----0-------0-------0-------0-------0-------0-------4-------4------|
G|---0---0---0---0---0---0---0---0---0---0---0---0---0---0---0---0----|
D|--------------------------------------------------------------------| x3
G|--------------------------------------------------------------------|
C|-7-------7-------5-------5-------4-------4-------3-------3----------|         
 
D|--------------------------------------------------------------|
B|-----0-------0-------0-------0-------5-------5-------4--------|
G|---0---0---0---0---0---0---0---0---0---0---0---0---0---0------|
D|--------------------------------------------------------------|
G|--------------------------------------------------------------|
C|-7-------7-------5-------5-------4-------4-------3-------3----|

Leave a Reply

Loading...