Woman You Got Intro Tab by Maddie & Tae

Jimmy Robbins & Derek Wells Produced this track released it On the 21st of March 2021.

Woman You Got Tab

Track Info

Capo: 3rd fret

[Intro]

G
e|------------------------------------|
B|-0-0--------------0-0---------------|
G|-----2-0-2-0---0------2-0-2-0-0-----|
D|-------------0----------------------|
A|------------------------------------|
E|------------------------------------|

e|------------------------------------|
B|-0-0--------------0-0---------------|
G|-----2-0-2-0---0------2-0-2-0-0-----|
D|-------------0----------------------|
A|------------------------------------|
E|------------------------------------|

Leave a Reply

Loading...