XXXTENTACION – The Remedy For A Broken Heart Why Am I So In Love tab

The Remedy For A Broken Heart Why Am I So In Love Tab

Track Info

[Intro]
 
e|-----------------|-----------------|-----------------|-------------------------|
B|-2-------1-------|-2-------1-------|-2-------1-------|----1-----1-----1-----1--|
G|-3-------1-------|-3-------1-------|-3-------1-------|-3-----3-----3-----3-----|
D|-----------------|-----------------|-----------------|-------------------------|
A|-----------------|-----------------|-----------------|-------------------------|
E|-----------------|-----------------|-----------------|-------------------------|
 
 
 
[Verse & Chorus]
 
e|-----------------|-----------------|-----------------|-----------------|
B|-2-----------4---|-1-----------2---|-----1-------1---|-----1-------1---|
G|-3---------------|-1---------------|-3-------3-------|-3-------3-------|
D|-----------------|-----------------|-----------------|-----------------| x14
A|-----------------|-----------------|-----------------|-----------------|
E|-----------------|-----------------|-----------------|-----------------|
 
 
[Outro]
 
e|-----------------|-----------------|-----------------|-------------------------|
B|-2-------1-------|-2-------1-------|-2-------1-------|----1-----1-----1-----1--|
G|-3-------1-------|-3-------1-------|-3-------1-------|-3-----3-----3-----3-----|
D|-----------------|-----------------|-----------------|-------------------------| x2
A|-----------------|-----------------|-----------------|-------------------------|
E|-----------------|-----------------|-----------------|-------------------------|

Leave a Comment

Your email address will not be published.


Scroll to Top