Yasuha – Flyday Chinatown Bass

The track was released in the year 1981.

Flyday Chinatown

Track Info

  • Song: Flyday Chinatown
  • Artist: Yasuha

Chords Info

  • Tuning: Standard(E A D G B E)
  • BPM: 123
  • Key: Bm
[Riff]
 
G|------------------------------------|
D|-------------------------------4----|
A|----------------------0----4--------|
E|--2--0--1-----2--2------------------|
 
G|------------------------------------|
D|------------------------------------|
A|--------4--4---2--3--2--0--2--0-----|
E|--0--0---------------------------2--|
 
G|------------------------------------|
D|-------------------------------4----|
A|----------------------0----4--------|
E|--2--0--1-----2--2------------------|
 
G|------------------------------------|
D|------------------------------------|
A|--------4--4---2--3--2--0--2--0-----|
E|--0--0---------------------------2--|
 
 
[Theme]
 
G|--------------------6---------------|
D|------------------------6-----------|
A|-5----5----5---4------------4-------|
E|---------5----------------------4---|
 
G|--------------------4---------------|
D|------------------------4-----------|
A|-3----3----3---2------------2-------|
E|---------3----------------------2---|
 
 
G|------------------------------------|
D|------------------------------------|
A|-----------------4-------\16--------|
E|--0---------0-----------------------|
 
 
[Chorus]
 
G|------------------------------------|
D|------------------------------------|
A|---5---5----------4-----4-----------|
E|-----------5-----------------4------|
 
G|------------------------------------|
D|------------------------------------|
A|-------------4----------------------|
E|---2----2----------0-----5----------|
 
G|------------------------------------|
D|------------------------------------|
A|---5---5----------4-----4-----------|
E|-----------5-----------------4------|
 
G|------------------------------------|
D|--------------4--------------4------|
A|------------------------------------|
E|---2----2------------2--------------|
 
G|------------------------------------|
D|------------------------------------|
A|---5---5----------4-----4-----------|
E|-----------5-----------------4------|
 
G|------------------------------------|
D|------------------------------------|
A|-------------4----------------------|
E|---2----2----------0-----5----------|
 
G|------------------------------------|
D|------------------------------------|
A|---5---5----------4-----4-----------|
E|-----------5-----------------4------|
 
G|------------------------------------|
D|----------------------4-------------|
A|------------------------------------|
E|---2-----2-------------------2------|
 
[Verse]
 
G|------------------------------------|
D|------------------------------------|
A|--------------------------------0---|
E|--2---2-------0----2-------2--------|
 
G|------------------------------------|
D|------------------------------------|
A|--2---2-------0----2------------2---|
E|---------------------------2--------|
 
G|------------------------------------|
D|------------------------------------|
A|--------------2---------------------|
E|--0---0------------0-----------0----|
 
G|------------------------------------|
D|---------------------------2--------|
A|--0---0-------0----0------------0---|
E|------------------------------------|
 
G|------------------------------------|
D|------------------------------------|
A|-------------6----4------------4----|
E|--4---4--------------------4--------|
 
G|------------------------------------|
D|------------------------------------|
A|--------------------6---3---4-------|
E|--2---2----(0)----------------------|
 
G|---------6---6----------------------|
D|------------------------------------|
A|------------------------------------|
E|--------------------2---2-------0---|
 
G|------------------------------------|
D|------------------------------------|
A|--------------0-----2---2-----------|
E|--2---------2-----------------2-----|
 
G|------------------------------------|
D|------------------------------------|
A|---2-----------2--------------------|
E|------------2------0----0------0----|
 
G|------------------------------------|
D|------------------------------------|
A|-----------------0----0-------0-----|
E|--0------2---4----------------------|
 
G|------------------------------------|
D|----------2-------------------------|
A|--0----------0-----------------6----|
E|------------------4----4------------|
 
G|------------------------------------|
D|------------------------------------|
A|---4--------4------------6----4-----|
E|--------4------2---0----------------|
 
G|------------------------------------|
D|--------------------------2--4-2-4--|
A|----------------------4-------------|
E|--2----2----2--2--5-----------------|
 
[Chorus]
 
G|------------------------------------|
D|----4--2--4-------------------------|
A|--------------5---5------4---4------|
E|---------------------5-----------4--|
 
G|------------------------------------|
D|------------------------------------|
A|-------------4----------------------|
E|---2----2----------0-----5----------|
 
G|------------------------------------|
D|------------------------------------|
A|---5---5----------4-----4-----------|
E|-----------5-----------------4------|
 
G|------------------------------------|
D|--------------4--------------4------|
A|------------------------------------|
E|---2----2------------2--------------|
 
G|------------------------------------|
D|------------------------------------|
A|---5---5----------4-----4-----------|
E|-----------5-----------------4------|

If you like the work please write down your experience in the comment section, or if you have any suggestions/corrections please let us know in the comment section.

How useful was this post?

Click on a star to rate it!

Average rating 0 / 5. Vote count: 0

No votes so far! Be the first to rate this post.

As you found this post useful...

Follow us on social media!

Leave a Reply


Scroll to Top