Brandi Carlile – You And Me On The Rock Intro tab feat.Lucius

You and Me On the Rock Tab

Track Info

Key Info

  • Tune: Standard
  • Key: C#
  • Capo: 6th fret
[Intro]
 
e|-3-3-3-3--2--5--3--3-3------3-3-3-3--2--5--5--3-3--------------------------|
B|-3-3-3-3--3--3--3--3-3------3-3-3-3--3--3--3--3-3--------------------------|
G|-0-0-0-0--0--0--0--0-0------0-0-0-0--0--0--0--0-0--------------------------|
D|---------------------------------------------------------------------------|
A|---------------------------------------------------------------------------|
E|---------------------------------------------------------------------------|
 
e|-5-5-5-5--3--7--5--5-5-----5-5-5-5--3--7--7--5-5---------------------------|
B|-5-5-5-5--5--5--5--5-5-----5-5-5-5--5--5--5--5-5---------------------------|
G|-0-0-0-0--0--0--0--0-0-----0-0-0-0--0--0--0--0-0---------------------------|
D|---------------------------------------------------------------------------|
A|---------------------------------------------------------------------------|
E|---------------------------------------------------------------------------|

YOU AND ME CHORDS ON THE ROCK CHORDS

Leave a Comment

Your email address will not be published.


Scroll to Top