Zac Brown Band – Jolene bass tab

Jolene Bass Tab

Track Info

Tuning: Standard( E A D G )

(Bass starts at 0:14)
 
[Intro]
 
G|---------------------------------------------------|
D|---------------------------------------------------|
A|----2--------------2-2---2---2-2--2---2--4-----2-4-|
E|-2-----0-2-2---2---------------------------2-------|
 
[Verse 1]
 
G|---------------------------------------------------|
D|---------------------------------------------------|
A|----2--------------2-2---2---2-2--2---2--4-----2-4-|
E|-2-----0-2-2---2---------------------------2-------|
 
G|---------------------------------------------|
D|---------------------------------------------|
A|----2--------------2-2---2---2-2--2---2--4---|
E|-2-----0-2-2---2---------------------------2-|
 
 
[PreChorus]
 
G|----------------------------------------------------------------------------------|
D|----------------------------------------------------------------------------------|
A|-4/6---4-4---2--2-2--------------1-2---2-2------2----------4--4-4---6--6-6---2----|
E|---------------------2--0-2-2--4-------------2-----0-2-2------------------------2-|
 
G|--------------------------------------------------------------------|
D|--------------------------------------------------------------------|
A|-4/6---4-4---2-2---2-2--2--4-/6---4-4---2-2---2-2--2--------4-2-1---|
E|------------------------------------------------------1/4---------4-|
 
 
[Chorus]
 
G|----------------------------------------------------|
D|----------------------------------------------------|
A|----2----------2--------------2----------2----------|
E|-2-----0-2-2------6--4--6--2-----0-2-2------6--4--6-|
 
 
G|---------------------------------------------------|
D|---------------------------------------------------|
A|----2--------------2-2---2---2-2--2---2--4-----2-4-|
E|-2-----0-2-2---2---------------------------2-------|
 
 
G|---------------------------------------------------|
D|---------------------------------------------------|
A|----2--------------2-2---2---2-2--2---2--4-----2-4-|
E|-2-----0-2-2---2---------------------------2-------|
 
 
[Verse 2]
 
G|---------------------------------------------------|
D|---------------------------------------------------|
A|----2--------------2-2---2---2-2--2---2--4-----2-4-|
E|-2-----0-2-2---2---------------------------2-------|
 
G|---------------------------------------------|
D|---------------------------------------------|
A|----2--------------2-2---2---2-2--2---2--4---|
E|-2-----0-2-2---2---------------------------2-|
 
 
[PreChorus]
 
G|----------------------------------------------------------------------------------|
D|----------------------------------------------------------------------------------|
A|-4/6---4-4---2--2-2--------------1-2---2-2------2----------4--4-4---6--6-6---2----|
E|---------------------2--0-2-2--4-------------2-----0-2-2------------------------2-|
 
G|--------------------------------------------------------------------|
D|--------------------------------------------------------------------|
A|-4/6---4-4---2-2---2-2--2--4-/6---4-4---2-2---2-2--2--------4-2-1---|
E|------------------------------------------------------1/4---------4-|
 
 
[Chorus]
 
G|----------------------------------------------------|
D|----------------------------------------------------|
A|----2----------2--------------2----------2----------|
E|-2-----0-2-2------6--4--6--2-----0-2-2------6--4--6-|
 
 
G|-----------------|
D|-----------------|
A|----2------------|
E|-2-----0-2-2---2-|
 
 
 
================
| /   Slide up
================ 

How useful was this post?

Click on a star to rate it!

Average rating 0 / 5. Vote count: 0

No votes so far! Be the first to rate this post.

As you found this post useful...

Follow us on social media!

Leave a Reply


Scroll to Top