Zach Bryan – From Austin Intro Tab

On the 25th of February 2022, the song was released, Ryan Hadlock.

From Austin Intro Tab

Track Info

Key Info 

  • Tuning: Standard(E A D G B e)
  • Key: C
  • BPM: 110
[Intro]
 
    F                 C
e|----------1-------------------------------------|
B|--1---1------1--------------1-------------------|
G|----2-------2-------0---0--------0--------------|
D|--3-----3-3---3-------2--------2----------------|
A|--------------------3-----3-3-------------------|
E|------------------------------------------------|
 
    G              F
e|---------1--------------------------------------|
B|------------------------------------------------|
G|--0--0-------------2----------------------------|
D|----0------------3---3---3----------------------|
A|-----------------------3------------------------|
E|--3----3-3-------1-------1----------------------|

FROM AUSTIN CHORDS

How useful was this post?

Click on a star to rate it!

Average rating 0 / 5. Vote count: 0

No votes so far! Be the first to rate this post.

As you found this post useful...

Follow us on social media!

Leave a Reply


Scroll to Top