4rif – Cafe In La Intro tab

On the 28th of February 2021, the track was released, produced by GC & written by 4rif.

Cafe In LA TAB

Track Info

  • Song: Cafe in LA
  • Artist: 4rif
  • Produced by GC
[Intro]
 
e|-------------------------------------------------------------------|
B|-----5--------3-----2-----2------3--3------7----2-----3-----5------|
G|-----6--7-----4-----2-----2------2--2------7----1-----2-----4------|
D|-----7--------3-----2-----1------4--4------6----2-----4-----6------|
A|--5------5-4-----4----4-2---2-2-------2-7-----0-------2-----4------|
E|--------------------2--2-------------------------------------------|
 
[Chorus]
 
e|--------------------------4-------5------5------5------------------|
B|-----7--7-----5-----2-----2-------2------2------5------------------|
G|-----6--6-----4-----4-----2-------2------2------6------------------|
D|-----7--7-----3-----2-----4-------4------2--2---7------------------|
A|--5------5-4----2-4---------4-2-----2-2---------7------------------|
E|-----------------------------2-------------------------------------|
 
e|-------------------------------------------------------------------|
B|-----5--------3-----2-----2------3--3------7----2-----3-----5------|
G|-----6--7-----4-----2-----2------2--2------7----1-----2-----4------|
D|-----7--------3-----2-----1------4--4------6----2-----4-----6------|
A|--5------5-4-----4----4-2---2-2-------2-7-----0-------2-----4------|
E|--------------------2--2-------------------------------------------|
 
*Repeat Chorus

Leave a Reply

Loading...