How To Train Your Dragon – Flying Theme tab by John Powell

How To Train Your Dragon - Flying Theme tab by John Powell

Track info

Song: How to train your dragon
Flying Theme
Produced by John Powell

[Verse 1]
 
E|--------0--------------------------------------|
B|-2---2----2----2---3----2----------------------|
G|---3--------2--------------3 --3----30-30------|
D|-----------------------------------------------|
A|-----------------------------------------------|
E|-----------------------------------------------|
 
E|-----------------------------------------------|
B|-----------------------------------------------|
G|-----------------------------------------------|
D|---4----4---40---------------------------------|
A|-----------------------------------------------|
E|-----------------------------------------------|
 
 
[Chorus]
 
E|---2----3---20-2-3-20--------------------------|
B|-----------------------------------------------|
G|-----------------------------------------------|
D|-----------------------------------------------|
A|-----------------------------------------------|
E|-----------------------------------------------|
 
 
 
 
[Verse 2]
 
E|---------------------------------5--------------|
B|---------5-----7---7---------7------5--77-------|
G|-7 --7 ------------------7----------------------|
D|------------------------------------------------|
A|------------------------------------------------|
E|------------------------------------------------|
 
E|--7---5-----------------------------------------|
B|----------7----5---5--7------------5------------|
G|---------------------------4--6--7---7-6--------|
D|------------------------------------------------|
A|------------------------------------------------|
E|------------------------------------------------|
 
 
[Chorus]
 
E|------------------------------------------------|
B|------------------------------------------------|
G|-4--------4-------------------------------------|
D|------7-----------------------------------------|
A|------------------------------------------------|
E|------------------------------------------------|

Leave a Reply

Loading...