Aankh Hai Bhari Bhari Guitar Lesson | Intro |

Aankh Hai Bhari Bhari Guitar Lesson

Aankh Hai Bhari Bhari guitar Lesson
Aankh Hai Bhari Bhari Guitar Lesson

Song: Aankh Hai Bhari Bhari
Film: Tumse Acha Kaun Hai
Singer: Kumar Sanu & Alka Yagnik
Music: Nadeem Shravan
Lyrics: Sameer
Banner: Venus Records & Tapes Pvt Ltd

“Aankh Hai Bhari Bhari” is a beautiful evergreen song by Kumar Sanu and Alka Yagnik. This song is from the Bollywood film Tumse Achcha Kaun Hai. This song is in two different version duet and sad version. The sad version is sung by Kumar Sanu.

Ankh Hai Bhari Bhai Guitar Lesson

If you want to play sad version, so it is in G major Scale. But if you want to play duet version so that will be played on F# major scale. To play in F# major scale you have to drop down 1 note.

Sad Version
Tuning: Standard ( E A D G B E )
Duet Version
Tunning: (D# G# C# F# Bb D# )

E--------------------------------------------| 
A--------3-0------------------3-0------------|
G--0---0-----2-0/2-0h2--0---0-----2-0/2-0h2--|
D----0--------------------0------------------|
A--------------------------------------------|
E--------------------------------------------|


E----------------------------------------------|
A------------------------------3-0-------------|
G0----------2------------0---0-----2-0/2-0-2-0-|
D---4-2---2---2-0---0------0-------------------|
A-------3---------3---3------------------------|
E----------------------------------------------|

After synth

E--------------------------------------------|
A--------------------------------------------|
G--4----4-4-4-4-7-5-4-------5-4--------------|
D---------------------7--7------7/9-7--------|
A----5---------------------------------------|
E--------------------------------------------|

E--------------------------------------------|
A--------------------------------------------|
G-----7--5-4---4-5-4-------------4-----------|
D4-----------7--------7-5-5-5-5-5--7-5-4-----|
A---7------------------------------------7-5-|
E--------------------------------------------|

E--------------------------------------------|
A--------3-0------------------3-0------------|
G--0---0-----2-0/2-0h2--0---0-----2-0/2-0h2--|
D----0--------------------0------------------|
A--------------------------------------------|
E--------------------------------------------|

Leave a Reply

Loading...