Airbag – Por Mil Noches Tab

Por Mil Noches

Track Info

Key Info

  • Tuning: Standard(E A D G B e)
  • BPM: 112
  • Key: C#m
[Solo]
 
e|---------------------------------------------------------------------------|
B|------9--------------------------------------------------------------------|
G|---11b---11br--------9---8-9---11br9---------------------------------------|
D|---------------9h11-------------------9h11-11-9-11-------------------------|
A|---------------------------------------------------------------------------|
E|---------------------------------------------------------------------------|
 
e|---------------------------------------------------------------------------|
B|----------------------12h14-12--10p9h10-----10b-10-9---7h9-7---------------|
G|---------9-11-9--/13--------------------9----------------------9p8h9-------|
D|---9h11--------------------------------------------------------------------|
A|---------------------------------------------------------------------------|
E|---------------------------------------------------------------------------|
 
 
 
==================== 
| / Slide up
| b Bend
| br Bend release | h Hammer-on | p Pull-off ====================

Leave a Comment

Your email address will not be published.


Scroll to Top