Arctic Monkeys – Do I Wanna Know tab

Do I Wanna Know tab

Track Info

[Intro]
 
E|--------------------------------------------------------------|
B|--------------------------------------------------------------|
G|--------------------------------------------------------------|
D|-------------------1/3--1---------------0---------------------|
A|------1-----------1---------3/5-3---1-3---3----1-3-3h5-3h5----|
E|---1-3--3------1-3------------------------------------------3-|
 
 
[Verse 1]
 
E|--------------------------------------------------------------|
B|--------------------------------------------------------------|
G|--------------------------------------------------------------|   x4
D|-------------------1/3--1---------------0---------------------|
A|------1-----------1---------3/5-3---1-3---3----1-3-3h5-3h5----|
E|---1-3--3------1-3------------------------------------------3-|
 
 
[Pre-Chorus]
 
E|--------------------------------------------------------------|
B|--------------------------------------------------------------|
G|--------------------------------------------------------------|
D|-5-1----------------------------------------------------------|
A|-----3-5-6-5-3--1-3--1-3-5------1-----------------------------|
E|---------------------------3--1---3---------------------------|
 
E|-----------------------------------------------------------|
B|-----------------------------------------------------------|
G|-----------------------------------------------------------|
D|------------------------------0----------------------------|
A|----3h5--6-5-3---1-3----1-3--------------------------------|
E|---------------------------------3-------------------------|
 
E|---------------------------------------------------------|
B|---------------------------------------------------------|
G|---------------------------------------------------------|
D|---------------5/1--------------------------------0------|
A|-------1----------------3h5---6-5-3----1-3---1-3---------|
E|---1-3----3----------------------------------------3----3|
 
 
[Chorus]
 
E|--------------------------------------------------------------|
B|--------------------------------------------------------------|
G|--------------------------------------------------------------|
D|-------------------1/3--1---------------0---------------------|
A|------1-----------1---------3/5-3---1-3---3----1-3-3h5-3h5----|
E|---1-3--3------1-3------------------------------------------3-|
 
 
[Verse 2]
 
E|-----------------------------------------------------------------|
B|-----------------------------------------------------------------|
G|-----------------------------------------------------------------|
D|--------------------3/1----------------0-------------------------|
A|------------------1------3/5--3----1-3---3----1-3--3h5--3h5------|
E|--------3------1-3---------------------------------------------3-|
 
E|---------------------------------------------------------|
B|---------------------------------------------------------|
G|---------------------------------------------------------|
D|--------------------3/1----------------0---------5/1-----|
A|------------------1------3/5--3----1-3---3----5----------|
E|--------3------1-3---------------------------------------|
 
E|----------------------------------------------------------|
B|----------------------------------------------------------|
G|----------------------------------------------------------|
D|-----------------------------0----------------------------|
A|----3h5--6-5-3---1-3----1-3-------------------------------|
E|--------------------------------3-------------------------|
 
E|---------------------------------------------------------|
B|---------------------------------------------------------|
G|---------------------------------------------------------|
D|---------------5/1-------------------------------0-------|
A|-------1----------------3h5---6-5-3----1-3---1-3---------|
E|---1-3---3-----------------------------------------3-----|
 
 
E|--------------------------------------------------------|
B|--------------------------------------------------------|
G|--------------------------------------------------------|
D|--------------------------------------------------------|
A|-------1------------------------------------------------|
E|---1-3---3----------------------------------------------|
 
 
[Chorus]
 
E|--------------------------------------------------------------------|
B|--------------------------------------------------------------------|
G|--------------------------------------------------------------------|   x2
D|----------------------3/1-1---------------0-------------------------|
A|-------1------------1-------3/5--3----1-3---3----1-3-3h5--3h5-------|
E|---1-3---3------1-3-----------------------------------------------3-|
 
 
[Solo]
 
E|-------------------------------------------------------|
B|-------------------------------------------------------|
G|----12-14-12-14--15-17-14-15---------------------------|
D|-------------------------------------------------------|
A|-------------------------------------------------------|
E|-------------------------------------------------------|
 
E|-------------------------------------------------------|
B|-------------------------------------------------------|
G|-------------------------------------------------------|
D|-----5/1---------------------------------0-------------|
A|--------------3h5---6-5-3----1-3---1-3-----------------|
E|-------------------------------------------3-----------|
 
E|-------------------------------------------------------|
B|-------------------------------------------------------|
G|-------------------------------------------------------|   x3
D|---------------5/1-------------------------------0-----|
A|-------1----------------3h5---6-5-3----1-3---1-3-------|
E|---1-3---3-----------------------------------------3---|
 
 
[Outro]
 
E|---------------------------------------------------------|
B|---------------------------------------------------------|
G|---------------------------------------------------------|
D|-------0-------------------0----------------0------------|
A|---1-3-----------------1-3--------------1-3--------------|
E|--------3-------3------------3------3---------3----3---3~|
 
************************
| /   Slide up
| h   Hummer-on
| ~   Vibrato
************************

Leave a Reply

Loading...