Ghost – Call Me Little Sunshine Tab

On the 20th of January 2022, the song was released produced by Klas Åhlund.

Call Me Little Sunshine Tab

Song Info

Key Info

  • Tuning: (D G C F A D)
  • Key: F
  • BPM: 88
[Solo]
 
1st Guitar
 
[Part 1]
d|----------------------------------------------------------------------------------|
A|--------------------------------------------13-13-13-12-------13-12---------------|
F|-------------------------10-10-10/9-9-9-9-9-------------12----------12------------|
C|-12-12-12/10-10-10-10-10-----------------------------------12----------14-14-14---|
G|----------------------------------------------------------------------------------|
D|----------------------------------------------------------------------------------|
 
d|-----------------------------------------------------------------------15------|
A|-12----12/14~--16p14-16b-16r-14-12~------------------------------12-13----15---|
F|----14--------------------------------------------------10-12-14---------------|
C|-----------------------------------------------10-12-14------------------------|
G|--------------------------------------10-12-14---------------------------------|
D|-------------------------------------------------------------------------------|
 
[Part 2]
d|----------------------------------------------------------------------------------| A|--------------------------------------------13-13-13-12-------13-12---------------| F|-------------------------10-10-10\9-9-9-9-9-------------12----------12------------| C|-12-12-12\10-10-10-10-10-----------------------------------12----------14-14-14---| G|----------------------------------------------------------------------------------| D|----------------------------------------------------------------------------------|
d|-------------------------15----------------------------| A|--------16-14-16p14-16b-----15-------------------------| F|--12-14------------------------17-16~~~-14h16p14-12----| C|-------------------------------------------------------| G|-------------------------------------------------------| D|-------------------------------------------------------| 2nd Guitar [Part 2] d|-------------------------------------------------------------------------------------| A|-------------------------------------------------13-13-13-12------13-12--------------| F|-------------------------14-14-14\12-12-12-12-12------------12---------12------------| C|-15-15-15\14-14-14-14-14---------------------------------------12---------14-14-14---| G|-------------------------------------------------------------------------------------| D|-------------------------------------------------------------------------------------| d|--------15-12--13-12-15--15-17-15-15~~~---| A|--12-13-----------------------------------| F|------------------------------------------| C|------------------------------------------| G|------------------------------------------| D|------------------------------------------|
;;;;;;;;;;;;;;;;;;;;
| / Slide
| b Bend
| h Hammer-on
| p Pull-off | r Release | ~ Vibrato ;;;;;;;;;;;;;;;;;;;

How useful was this post?

Click on a star to rate it!

Average rating 0 / 5. Vote count: 0

No votes so far! Be the first to rate this post.

As you found this post useful...

Follow us on social media!

Leave a Comment

Your email address will not be published. Required fields are marked *


Scroll to Top