Chris Stapleton – Tennessee Whiskey Chords

Tennessee Whiskey Chords by Chris Stapleton

Learn to play Tennessee Whiskey Chords by Chris Stapleton.

Chords Details

Tennessee Whiskey Chords
Tennessee Whiskey Chords
  • Key: A
  • Chords: A, Bm, D, E
  • A – x02220
  • Bm – x24432
  • D – xx0232
  • E – 022100
  • Suggested Strumming: DU DU DU

Track Info

A wonderful song you love to Sing and play with the guitar. The song has written by Linda Hargrove & Dean Dillon for the album Traveller. There are so many guitar solo piece in this song, which you can learn to play with the help of the tab mentioned here.

  • Song: Tennessee Whiskey
  • Artist: Chris Stapleton
  • Produced by: Dave Cobb & Chris Stapleton
  • Written By: Linda Hargrove & Dean Dillon
  • Album: Traveller

[Intro]

  E       A            Bm               D              A     A A D A
E ------------|--------------|--------------|--------------|-0-0-2-0--|
B ------------|--------------|--------------|--------------|-2-2-3-2--|
G ------------|--------------|--------------|--------------|-2-2-2-2--|
D ------------|--------------|--------------|--------------|-2-2-0-2--|
A -----0-2/4--|-4-0-2/4--|-2h4-2h4-4--|-2/4-0------|-0-0-0-0--|
E -0-2--------|--------------|--------------|---------4/5--|-0-0-0-0--|


   E      A
E --------0--
B --------2--
G --------2--
D --------2--
A -----0-----
E -0h2-------

[Verse]

U[A]sed to spend my nights out in a [Bm]barroom
[D] Liquor was the [Bm]only love I’ve kn[A]own[A][D][A]


E A
E --------0--
B --------2--
G --------2--
D --------2--
A -----0-----
E -0h2-------

B[A]ut you rescued me from reachin’ for the [Bm]bottom
And brought me b[D]ack from [Bm]being too far g[A]one[A][D][A]

  E        A
E ----------0--
B ----------2--
G ----------2--
D ----------2--
A ------0------
E -0h2---------

You’re as

[Chorus]

You’re as sm[A]ooth[A][D][A] as Tennessee w[Bm]hiskey
You’re as sw[D]eee[Bm]eet as strawberry w[A]ine [A][D][A]
Yo[E]u’re as w[A]arm as a glass of b[Bm]randy
And honey, I stay st[D]oned on your l[Bm]ove all the t[A]ime[A][D][A]


E A
E ------------
B ------------
G ------------
D ------------
A -----0-3h4--
E -0-2--------

[Verse]

I[A]’ve looked for love in all the same old p[Bm]laces
[D] Found the b[Bm]ottom of a bottle was always d[A]ry[A][D][A]

   E        A
E ----------0--
B ----------2--
G ----------2--
D ----------2--
A ------0------
E -0h2---------

[A]But when you poured out your heart I didn’t [Bm]waste it
‘Cause there’s n[D]othing like your l[Bm]ove to get me h[A]igh, y[E]eah

[Chorus]

You’re as sm[A]ooth[A][D][A] as Tennessee w[Bm]hiskey
You’re as sw[D]eee[Bm]eet as strawberry w[A]ine[A][D][A]
Yo[E]u’re as w[A]arm as a glass of b[Bm]randy
And honey, I stay st[D]oned on your l[Bm]ove all the t[A]ime[A][D][A]

[Instrumental]

[E] [A] [Bm] [D][Bm] [A] [A][D][A]
[E] [A] [Bm] [D][Bm] [A] [E]

e|----------b-|-------------s---|-------------s---|-------|
B|------10-12-|-------14--14-|-------14--14-|-12-12-|
G|-9-11-------|---s---------s---|---s-------------|-12-12-|
D|------------|-12-----14-|-12-----------|-------|
A|------------|-----------------|-----------------|-------|
E|------------|-----------------|-----------------|-------|


e|-----------------------------|--b-------|--b--b--------|
B|------------------------10~~-|-12-12-10-|-13-13--10-10-|
G|------------s---9-11-11------|----------|--------------|
D|-----7---7-9--------------|----------|--------------|
A|-7-9---9---------------------|----------|--------------|
E|-----------------------------|----------|--------------|


e|----------------------------|----------|
B|----------------------------|----------|
G|-9h11-9-11---s-p------------|--h--p-s--|
D|-9h11------11-7------h--7-|-9-10-9-|
A|------------------9---7-9---|----------|
E|----------------------------|----------|


e|-------------------------------------------------|
B|-----------------------------------10----10--s---|
G|--------------------------s---9-11----11----9-|
D|--h--7--7---h-p----7-9-7-9--------------------|
A|-7-9-------7-9-7-9-------------------------------|
E|-------------------------------------------------|

[Chorus]

Y[E]ou’re as sm[A]ooth[A][D][A] as Tennessee w[Bm]hiskey
You’re as sw[D]eee[Bm]eet as strawberry w[A]ine[A][D][A]
Yo[E]u’re as w[A]arm as a glass of b[Bm]randy
And honey, I stay st[D]oned on your l[Bm]ove all the t[A]ime[A][D][A]

[Outro]

Y[E]ou’re as smooth[A][D][A] as Tennessee w[Bm]hiskey
Tennessee whisk[D]ey,[Bm] Tennessee whiskey [A][D][A]
Y[E]ou’re as sm[A]ooth[A][D][A] as Tennessee w[Bm]hiskey
Tennessee whisk[D]ey
[Bm] Tennessee whisk[A]ey

e| -----0--
B| ---2-2--
G| -2------
D| --------
A| --------
E| --------


If you find some correction to be needed comments below.

%d bloggers like this: