DESPACITO GUITAR TABS by Luis Fonsi Ft.Daddy Yankee

Despacito Intro Tab by Luis Fonsi Ft.Daddy Yankee

Learn to play Despacito Tabs by Luis Fonsi Ft.Daddy Yankee

Track Info

Despacito Intro Tab
Despacito
  • Song: Despacito
  • Artist: Luis Fonsi
  • Featuring: Daddy Yankee
  • Produced by: Andrés Torres & Mauricio RengifoI
  • Album: VIDA

DespacitI Tab by Luis Fonsi Ft.Daddy Yankee

[Intro]

e|------------------------------|---------9---10/12-12/14---14------14--------14---------|
G|----12--15-14-12\11-12~-------|----12-------------------------15~-----15~--------------|
G|---11-------------------------|---11---------------------------------------------------|
D|--12--------------------------|--12----------------------------------------------------|
A|------------------------------|--------------------------------------------------------|
E|------------------------------|--------------------------------------------------------|

e|-----------------------------------|
B|-------15-----14-----12------------|
G|-----------------------------------|
D|--14/16-----14-----12--------------|
A|-----------------------------------|
E|-----------------------------------|


| x Dead note
| h Hammer-on
| p Pull-off
| r Release
| / Slide up
| \ Slide down
| ~ Vibrato


Despacito Intro Tab (Ver.2) by Luis Fonsi Ft.Daddy Yankee

[Intro]
Em
e|--0--3-2p0----0-----|----0-2-3-5---7~---7~---7~--|-------3--2----0|
B|--0---------3----0--|--0-------------8~---8~-----|----------------|
G|--0--------------0--|----------------------------|--2/4-----2----0|
D|-----------------2--|----------------------------|----------------|
A|-----------------2--|----------------------------|----------------|
E|-----------------0--|----------------------------|----------------|

Despacito Intro Tab (Ver.3) by Luis Fonsi Ft.Daddy Yankee

[Intro]
e|-------2---------2-------2---------2-------------------|
B|---------3---------3--------3---------3----------------|
G|----4---------4--------4---------4---------------------|
D|-------------------------------------------------------|
A|-------------------------------------------------------|
E|-------------------------------------------------------|

e|-------3---------3-------3---------3-------------------|
B|---------3---------3--------3---------3----------------|
G|----4---------4--------4---------4---------------------|
D|-------------------------------------------------------|
A|-------------------------------------------------------|
E|-------------------------------------------------------|

e|-------2---------2-------2---------2-------------0-----|
B|---------3---------3--------3---------3----------2-----|
G|----2---------2--------2---------2---------------2-----|
D|-------------------------------------------------2-----|
A|-------------------------------------------------0-----|
E|-------------------------------------------------x-----|

e|-----2----2-----2------------3----3----3-----------2----2----2------------0-----|
B|-----3-----3-------3---------3-----3------3--------3-----3------3---------2-----|
G|-----4------4---------4------4------4--------4-----2------2--------2------2-----|
D|-----4--------------------------------------------------------------------2-----|
A|--------------------------------------------------------------------------0-----|
E|--------------------------------------------------------------------------x-----|

e|---7--10p-9p-7----7------7---9--10--12--14-----14-----14------------------------|
B|---7-----------11--------7-----------------15~----15~---------------------------|
G|---7---------------------7------------------------------------------------------|
D|---x----------------------------------------------------------------------------|
D|---x----------------------------------------------------------------------------|
E|---x----------------------------------------------------------------------------|


e|-------10---9---7-------7---10-9-7-------------10-9-7-9-10------10-9-10-12-9----|
B|-----------------------------------10-8-----------------------------------------|
G|---9\11---9---7---------7-------------------------------------------------------|
A|--------------------------------------------------------------------------------|
A|--------------------------------------------------------------------------------|
E|--------------------------------------------------------------------------------|


e|-------10---9---7-------|
B|------------------------|
G|---9\11---9---7---------|
A|------------------------|
A|------------------------|
E|------------------------|

You love to play

Aladdin Speechless Chords 
Kabir Singh – Tujhe Kitna Chahne Lage Chords
Kabir Singh – Bekhayali Guitar Chords
Summer of 69 Chords
Shallow Chords

 

Leave a Reply

Loading...