Dua Lipa – DONT START NOW BASS TABS

Learn to play “Dont Start Now Bass Tabs” by Dua Lipa from her album Future Nostalgia. Easy Bass Tabs for Guitar.

Dont Start Now Bass Tabs
Dont Start Now Bass Tabs

Dont Start Now Track Info

Learn to play
Don’t Start Now Chords – Dua Lipa

[ Intro]

G|---------------------------------------------------------------------------|
D|---------------------------------------------------------------------------|
A|---------------------------------------------------------------2/12/-------|
E|---------------------------------------------------------------------------|
 
G|----------------------------------------------------------------7-----------------|
D|-----2----2-------------4------4-------------5-----5-------------------7----------|
A|---------------01---------------------------------------4---5---------------------|
E|--0----0------------2------2-------02----3-----3------7-----------5---------5-----|

G|-----------------------4---------------------------------------------7------------|
D|----2-----2----------------------24-----------5-----5--------------------7-----7--|
A|--------------01---2------2---2------52--------------------4------5---------------|
E|-0-----0------------------------------------3-----3-------7------------5----5-----|

G|-----------------------4------4--------------------------------7------------------|
D|----2-----2-------------------------------5-----5---------------------7-----------|
A|--------------01----2------2---------------------------4----5---------------------|
E|-0-----0--------------------------02---3-----3-------7-------------5------5-------|

[Pre-chorus]

G|----------------------------------------------------------------------------------|
D|----------------------------------------------------------------------------------|
A|--2~----5~-----5H7-7~-----9H10-10~----2~-----5~----5H7-7~----9H10-10--------------|
E|----------------------------------------------------------------------------------|

[Chorus]

G|-----------------------4-----4----------------------------7-----------------------|
D|----2-----2-----------------------------5-----5----------------7------------------|
A|--------------01---2------2------------------------4---5--------------------------|
E|-0-----0------------------------02---3-----3------7---------5------5--------------|

G|-----------------------4-----4----------------------------------------------------|
D|----2-----2-----------------------------5-----5-----------------------------------|
A|--------------01---2------2------------------------4---5--------------------------|
E|-0-----0------------------------02---3-----3------7-------------------------------|

[Verse 2]

G|----------------------------------------------------------------7-----------------|
D|-----2----2-------------4------4-------------5-----5-------------------7----------|
A|---------------01---------------------------------------4---5---------------------|
E|--0----0------------2------2-------02----3-----3------7-----------5---------5-----|

G|-----------------------4---------------------------------------------7------------|
D|----2-----2----------------------24-----------5-----5--------------------7-----7--|
A|--------------01---2------2---2------52--------------------4------5---------------|
E|-0-----0------------------------------------3-----3-------7------------5----5-----|

G|-----------------------4------4--------------------------------7------------------|
D|----2-----2-------------------------------5-----5---------------------7-----------|
A|--------------01----2------2---------------------------4----5---------------------|
E|-0-----0--------------------------02---3-----3-------7-------------5------5-------|

[Pre-chorus]

G|----------------------------------------------------------------------------------|
D|----------------------------------------------------------------------------------|
A|--2~----5~-----5H7-7~-----9H10-10~----2~-----5~----5H7-7~----9H10-10--------------|
E|----------------------------------------------------------------------------------|

[Chorus]

G|-----------------------4-----4----------------------------7-----------------------|
D|----2-----2-----------------------------5-----5----------------7------------------|
A|--------------01---2------2------------------------4---5--------------------------|
E|-0-----0------------------------02---3-----3------7---------5------5--------------|

G|-----------------------4-----4----------------------------7-----------------------|
D|----2-----2-----------------------------5-----5----------------7------------------|
A|--------------01---2------2------------------------4---5--------------------------|
E|-0-----0------------------------02---3-----3------7---------5---------------------|

[Bridge]

G|-------------------4-----4--------------------------7-----------------------------|
D|----2-------------------------------5---------------------7-----------------------|
A|-----------01---2-----2----------------------4---5--------------------------------|
E|-0-----0--------------------02---3-----3----7----------5------5-------------------|

G|-------------------4-----4-----------------------------7--------------------------|
D|---2--------------------------------5------5----------------7---------------------|
A|-----------01---2-----2-------------------------4---5-----------------------------|
E|-0----0---------------------02---3------3------7----------5-----5-----------------|

[Pre-chorus]

G|----------------------------------------------------------------------------------|
D|---------------------------------------------------------------------------9/-----|
A|--2~----5~-----5H7-7~-----9H10-10~----2~-----5~----5H7-7~----9H10-10--------------|
E|----------------------------------------------------------------------------------|

[Chorus]

G|-------4---4----------7----7------------------------------------------------------|
D|----------------------------------------------------------------------------------|
A|-01--2---2-----4---5----5-------5---7--7--7-9---7-----X--10---10~-----------------|
E|--------------7----------------7--------------------------------------------------|(X3)

G|-------4---4--------7---7---------------------------------------------------------|
D|----------------------------------------------------------------------------------|
A|-01--2----2----4--5---5-------7----7--7-9---7---------X--9-10~---9-10~----9-------|
E|--------------7--------------5----------------------------------------------------|

Learn to play
Don’t Start Now Chords – Dua Lipa

Leave a Reply

Loading...