BEKHAYALI INTRO TABS | Distortion | Arpeggio | Kabir Singh

Learn to play “Bekhayali Intro Tabs” ( Distortion & Arpeggio) by Sachet Tandon from the film Kabir Singh.

Bekhayali Intro Tabs,
Bekhayali Intro Tabs,

Bekhayali Track Info

  • Song: Bekhayali
  • Artist: Sachet Tandon
  • Music: Sachet- Parampara
  • Lyrics: Irshad Kamil
  • Cast: Shahid Kapoor, Kiara Advani
  • Acoustic Guitar: Rythm Shaw
  • Electric Guitar: Kalyan Baruah
  • Music Label: T- Series

Learn to play
Bekhayli Chords – Kabir Singh
Tujhe Kitna Chahne Lage Hum

[intro Distortion]

e|------15--------------------------
B|--15p----15p-13----15-13----------
G|----------------14-------14-14\-X-
D|----------------------------------
A|----------------------------------
E|----------------------------------

e|-------------5-7-5----------------------------------------------------|
B|-----------5-------8-5-7-5---7-5-------7-5----------------------------|
G|------5-7p-----------------8-----7-5---7-5----------------------------|
D|--5-7--------------------------------7-----7-5--------------------2---|
A|-----------------------------------------------7\5-0-3p-0-3p-0-3p-0---|
E|----------------------------------------------------------------------|

############
p =Pull off
\ =back slide
Bold =Tie
############

[Arpeggio]

e|-----------------------------------------------------------
B|-----------0-----------0-----------0-----------0--1--3-----
G|--------0-----------0-----------0-----------0--------------
D|-----2-----------2-----------2-----------0-----------------
A|--0--------------------------------------------------------
E|--------------3-----------1-----------3--------------------

e|---------------------------------------------------------------|
B|-----------0-----------0-----------0-----------0---------------|
G|--------0-----------0-----------0-----------0-----0------------|
D|-----2-----------2-----------2-----------0-----------0---------|
A|--0------------------------------------------------------------|
E|--------------3-----------1-----------3------------------------|

Leave a Reply

Loading...