Dua Lipa – Don’t Start Now tab

 Ian Kirkpatrick & Drew Jurecka produced this track was released on the 1st of November 2019.

Dont Start Now Tab

Track Info

[Intro]

e|-------5----------------------------|
B|------------------------------------|
G|-------------------4----------8-----|
D|-------------------------6----------|
A|------------------------------------|
E|------------------------------7-----|

e|------------------6-----------------|
B|----------------------------8-------|
G|-------5--------------6-------------|
D|------------------------------------|
A|-------------------------7----------|
E|------------------------------------|


[Verse 1]

e|------------------------------------|
B|------3----------3-----------3------|
G|------------------------------------|
D|------------------------------------|
A|------------------------------------|
E|------------------------------------|

e|------------------------------------|
B|-----8-------------6-----------4----|
G|------------------------------------|
D|------------------------------------|
A|------------------------------------|
E|------------------------------------|
[Chorus]

e|------------------------------------|
B|-----3-----------------5------------|
G|------------------------------------|
D|------------------------------------|
A|--------6-------------6-------------|
E|------------------------------------|

e|------------------------------------|
B|--------4--------------4------------|
G|------------------------------------|
D|------------------------------------|
A|---------------7--------------8-----|
E|------------------------------------|


[Verse 2]

e|------------------------------------|
B|--------3-----------------3-------3-|
G|------------------------------------| D|------------------------------------| A|------------------4-------------4---| E|------------------------------------| e|-------------------------------8----| B|-----2--------------5---------------| G|------------------------------------| D|------------------------------------| A|---------------6--------------0-----| E|------------------------------------| [Chorus] e|---------3-------------3---------3--| B|------------------------------------| G|------------------------------------| D|---------------------6--------------| A|---------6--------------------8-----| E|------------------------------------| e|------------------------------------| B|-------3------------5---------------| G|------------------------------------| D|----------------------------5-------| A|--------3---------------------------| E|------------------------------------| [Bridge] e|-------5------------------6---------| B|------------------------------------| G|------------------------------------| D|------------------------------------| A|----------8------------------7------| E|------------------------------------| e|------------------------------------| B|----------5--------------6----------| G|------------------------------------| D|------------------------------------| A|------------------------------------| E|------------------------------------| [Chorus] e|------------------------------------| B|-------3-----------3-----------3----| G|------------------------------------| D|-------------------------------5----| A|-----------5------------------------| E|------------------------------------| e|------------------------------------| B|------5---------------------9-------| G|------------------------------------| D|------------------------------------| A|----------7h9-----------------------| E|------------------------------------| [Outro] e|------------------------------------| B|--------------6p0-------------------| G|------------------------------------| D|------------------------------4-----| A|---------------6--------------------| E|------------------------------------| e|------------------------------------| B|------------------------------------| G|---------4--------------------6-----| D|------------------------------------| A|------------------------------------| E|------------------------------------| ******************* | p Pull-off
| h Hammer-on *******************

Leave a Comment

Your email address will not be published.


Scroll to Top