Dust Intro Tab by The 13th Floor Elevators

Lelan Rogers produced this track, released on November 1967.

DUST

Track Info

[Intro]
 
E|--7----------10---------7------8-----7------|
B|--8----------12---------8------8-----8------|
G|------------------------9------9-----7------|
D|--------------------------------------------|
A|--------------------------------------------|
E|--------------------------------------------|
 
E|--5------5----------------------------------|
B|--7------5----------------------------------|
G|--7------5----------------------------------|
D|--------------------------------------------|
A|--------------------------------------------|
E|--------------------------------------------|

Leave a Comment

Your email address will not be published.


Scroll to Top