Gary Moore – Over The Hills And Far Away Solo Tab

The track was released on December 1986, produced by Peter Collins.

Over the Hills and Far Away

Track Info

Key Info

  • Tuning: Standard(E A D G B e)
  • Key: E
Riff:
 
e|-0-2-3-0-0-5-0-0-7-0-0-8-7-5-7-0-0-0---0-5-3-2------------|
B|-------------------------------------3--------------------|
G|----------------------------------------------------------|
D|----------------------------------------------------------|
A|----------------------------------------------------------|
E|----------------------------------------------------------|
 
e|-0-2-3-0-0-5-0-0-7-0-0-8-5-7-8-5-5-5-7-8-/10-8-7----------|
B|--------------------------------------------------10-8-7--|
G|----------------------------------------------------------|
D|----------------------------------------------------------|
A|----------------------------------------------------------|
E|----------------------------------------------------------|
 
 
 
===============
| /  Slide up
===============

If you like the work please write down your experience in the comment section, or if you have any suggestions/corrections please let us know in the comment section.

Leave a Comment

Your email address will not be published.


Scroll to Top