Eyedress – Jealous bass tab

Jealous Bass Tab

Track Info

G|-----------------------------------|
D|-----------------------------------|
A|---------3-0-0-0-0-0-0-------------|
E|-1-1-0-1---------------------------|
 
G|-----------------------------------|
D|-----------------------------------|
A|---------3-0-0-0-0-0-0-------------|
E|-1-1-0-1---------------------------|

Repeat this on entire track

Leave a Reply

Loading...