Greta Van Fleet – Age of Machine Tab, Intro, Outro

Greta Van Fleet - Age of Machine Tab, Intro, Outro 1

Age of Machine Track info

Learn to play
Age of Machine Chords

[Intro]
 
e|----1-------1-------1----1p0------3-|
B|------3-------3-------3------3----x-|
G|--2-------2-------2------------2--x-|   x 7
D|-0------0-------0-----------------0-|
A|------------------------------------|
E|------------------------------------|
 
e|----1-------1-------1-----1p0-----3-3---|
B|------3-------3-------3-------3p0-0-0---|
G|--2-------2-------2-----2---------0-0---|   x 1
D|-0------0-------0-----------------0-0---|
A|----------------------------------2-2---|
E|----------------------------------3-3---|

Same you can play after verse1 and in Outro

Learn to play
Age of Machine Chords

Leave a Comment

Your email address will not be published.


Scroll to Top