We Shall Overcome Tabs

We Shall Over Come Tabs

Track Info

Position 1

e-------------------------------------------------|
B-------------------------------------------------|
G--0-0-2-2-0--------0-0-2-2-0---------------------|
D------------3-2--------------3-2-----------------|
A-------------------------------------------------|
E-------------------------------------------------|
We shall over come we shall over come

e-------------------------------------------------|
B--------0-1--3--0---0----------------------------|
G--0-0-2-----------2---2-0------------------------|
D-------------------------------------------------|
A-------------------------------------------------|
E-------------------------------------------------|
we shall over come some day


e-------------------------------------------------|
B----0-1---0--------------------------------------|
G--2---------2-0--2---0-------0--0----------------|
D-----------------------3-2---------3-2--0--------|
A---------------------------------3---------3-----|
E-------------------------------------------------|
Oh ho deep in my heart I do belive,
we shall over come some day

Position 2



e------5-5-------------5-5-----------------------|
B--8-8-----8--6-5--8-8-----8--6-5----------------|
G------------------------------------------------|
D------------------------------------------------|
A------------------------------------------------|
E------------------------------------------------|
We shall over come, we shall over come

e------5-7-8--10--7--5-7-5-----------------------|
B--8-8---------------------8---------------------|
G------------------------------------------------|
D------------------------------------------------|
A------------------------------------------------|
E------------------------------------------------|
We shall over come someday

e--5-7-8--7-5----5-------------------------------|
B-------------8-----8--6-5-----------------------|
G------------------------------------------------|
D------------------------------------------------|
A------------------------------------------------|
E------------------------------------------------|
Oh ho deep in my heart I do belive

e------------------------------------------------|
B--8-8---6-5-------------------------------------|
G------5------7--5-------------------------------|
D------------------------------------------------|
A------------------------------------------------|
E------------------------------------------------|
We shall over come some day.


We shall Over come Lyrics

We shall overcome
We shall overcome
We shall overcome, some day

Oh, deep in my heart
I do believe
We shall overcome, some day

We’ll walk hand in hand
We’ll walk hand in hand
We’ll walk hand in hand, some day

Oh, deep in my heart
I do believe
We shall overcome, some day

We shall live in peace
We shall live in peace
We shall live in peace, some day

Oh, deep in my heart
I do believe
We shall overcome, some day

We are not afraid
We are not afraid
We are not afraid, TODAY

Oh, deep in my heart
I do believe
We shall overcome, some day

The whole wide world around
The whole wide world around
The whole wide world around some day

Oh, deep in my heart
I do believe
We shall overcome, some day

Leave a Reply

Loading...