Hunter X Hunter – Hisoka Theme tab by Misc Cartoons

Hisoka Theme Tab

Hisoka Theme Track Info

  • Song: 奇術師のバイレ
  • Artist: 平野義久
  • Album: TVアニメ「HUNTER×HUNTER」オリジナル・サウンドトラック
e|-8-6-5----------------------------|-----------------|------|
B|-------8-6-5-8-5-6-------5--------|-----------------|------|
G|-------------------7--6-----6--7--|-----------------|------|
D|----------------------------------|-7-8-7-5-7-8-7-5-|-7----|
A|----------------------------------|-----------------|------|
E|----------------------------------|-----------------|------|
 
 
e|-|-6-6-6--|-----------------------------|-----------------|----------|
B|-|-6-6-6--|-----------------------------|-----------------|----------|
G|-|-7-7-7--|----------7------------------|-------7---------|----------|
D|-|-8-8-8--|-7--5-7-8---8-7-5---5-7-8-7--|-5-7-8---8-7-5---|-5-7-8-7--|
A|-|-8-8-8--|------------------5----------|---------------5-|----------|
E|-|-6-6-6--|-----------------------------|-----------------|----------|
 
 
e|--------------------|---------------------------------------------|
B|--------------------|---------------------------------------------|
G|--------------------|---------------------------------------------|
D|-7-5-7-8-7-2-3-4-5--|-7-5-7-8-7--7--3-2-0--2--2-3-2-3-2-3-2-3-2-3-|
A|--------------------|---------------------------------------------|
E|--------------------|---------------------------------------------|
 
 
e|---|--------------------------|-------5-7-8-7--7-8-7-5---------------|
B|---|---------------5-6-5---5--|-5-6-8------------------8-6-5-----6---|
G|---|-------5-7-8-7-------7----|------------------------------7-6---7-|
D|-2-|-5-7-8--------------------|--------------------------------------|
A|---|--------------------------|--------------------------------------|
E|---|--------------------------|--------------------------------------|
 
 
e|-----------------------------------------------------|
B|-----5-6-8-8-6-5-------------------------------------|
G|-6-7-------------7-6-4-7-6-4-7-----------------------|
D|-------------------------------2--5--3--2-3-2-3-2----|
A|-----------------------------------------------------|
E|-----------------------------------------------------|
 
 
e|----------------|----------------|-----------------|----------|
B|----------------|----------------|-----------------|----------|
G|----------7-----|----------------|-----7-----------|----------|
D|-7--5-7-8---8-7-|-5---5-7-8-7--5-|-7-8---8-7-5---5-|-7-8-7----|
A|----------------|---5------------|-------------5---|----------|
E|----------------|----------------|-----------------|----------|
 
 
e|--------------|---------------|---------------|
B|--------------|---------------|---------------|
G|--------------|---------------|---------------|
D|-7--5-7-8--7--|-2-3-4-5--7--5-|-7-8-7--7--3-2-|
A|--------------|---------------|---------------|
E|--------------|---------------|---------------|
 
 
e|-----------------------|--------|
B|-----------------------|--------|
G|-----------------------|--------|
D|-0--2--2-3-2-3-2-3-2-3-|-2-3-2--|
A|-----------------------|--------|
E|-----------------------|--------|
 
 
e|------------------------------5-7-8-7-5-7-|-7-5-7---------------------|
B|--------------------5-6-8-6-8-------------|-------6-5-6-5-------------|
G|-----------2-/4-5-4-----------------------|---------------7-8-7-8-7---|
D|-----2-5-3--------------------------------|---------------------------|
A|-2-3--------------------------------------|---------------------------|
E|------------------------------------------|---------------------------|
 
 
e|-----------------------------------|----|
B|-0-1-0-----------------------------|----|
G|-------2---------------------------|----|
D|---------3-2-2-3-2---3-2-----------|----|
A|-------------------5-----3-2-------|----|
E|-----------------------------3-1-0-|----|
 
 
e|-8-6-5-------------------|------------------------|-6-6-6--||----|
B|-------8-6-5-8-5-6-----5-|------------------------|-6-6-6--||----|
G|-------------------7-6---|-6-7--------------------|-7-7-7--||----|
D|-------------------------|-----7-8-7-5-7-8-7-5-7--|-8-8-8--||----|
A|-------------------------|------------------------|-8-8-8--||----|
E|-------------------------|------------------------|-6-6-6--||----|
 
 
 
************** / slide up
**************

 

Leave a Reply

Loading...