Aya Mausam Dosti Ka Tab Intro | Maine Pyar Kiya

Aya Mausam Dosti Ka is a very beautiful romantic song by Living legend Lata Mangeshkar and S.P.Balasubramaniyam for Salman khan‘s debut film Maine Pyaar Kiya.

Aya Mausam Dosti Ka Tab

Track Info

Key: G Major
[Intro]

E----------------------------------------------|
B----------------------------------------------|
G----0---0---0--0---0---2---2---2---2---2---4--|
D--0---0---0--0---0---0---0---0---0---0---0----|
A----------------------------------------------|
E----------------------------------------------|


E----------------------------------------------|
B----------------------------------------------|
G---4---4---4---4--5-4-2-----------------------|
D-0---0---0---0------------5-4-2-0-------------|
A----------------------------------------------|
E----------------------------------------------|


E----------------------------------------------|
B----------------------------------------------|
G----0---0---0--0---0---2---2---2---2---2---4--|
D--0---0---0--0---0---0---0---0---0---0---0----|
A----------------------------------------------|
E----------------------------------------------|


E----------------------------------------------|
B----------------------------------------------|
G---4---4---4---4--5-4-2-----------------------|
D-0---0---0---0------------5-------------------|
A----------------------------------------------|
E----------------------------------------------|

 
 
 
 

Leave a Reply

Loading...