Måneskin – Were Gonna Dance On Gasoline Bass Tab

The track was released in the year 2022.

 Måneskin - Were Gonna Dance On Gasoline Bass Tab 1

Track Info

  • Song: Were Gonna Dance On Gasoline
  • Artist: Måneskin
  • Produced by SLY
  • Release Date: 2022

Key Info 

  • Tuning: Standard (E A D G)
G|------------------------------------------|
D|------------------------------------------| x7
A|------------------------------------------|
E|--8--8--8--6--6--8--8--6------------------| 
 
G|------------------------------------------|
D|------------------------------------------|
A|------------------------------------------|
E|--8--8--8--8--8--8--8--4--4--4------------|
 
G|------------------------------------------|
D|------------------------------------------|
A|--8--8--8---6--6--------------------------|
E|------------------8--8--8--8--8--8--8--8--|
 
G|------------------------------------------|
D|------------------------------------------|
A|------------------------------------------|
E|--4--4--4--4--4--4--4--4------------------|
 
G|------------------------------------------|
D|------------------------------------------|
A|--8--8--8--8--8--8--8--8------------------|
E|------------------------------------------|
 
G|------------------------------------------|
D|------------------------------------------|
A|--6--6--6--6--6--6--6--6------------------|
E|------------------------------------------|
 
G|------------------------------------------|
D|------------------------------------------|x12
A|------------------------------------------|
E|--8--8--8--6--6--8--8--6------------------| 

Leave a Comment

Your email address will not be published.


Scroll to Top