Manike Mage Hithe Tab by Yohani & Satheeshan

The song was released on the 22nd of May 2021. The track is on the E major key, to simplify the chords we use a Capo on the 4th fret.

Manike Mage Hithe Tab by Yohani & Satheeshan

Track Info

Learn to play
Manike Mage Hithe Chords by Yohani

E--0-0-0-2-2-4--0-0-0-2-2---0-----|
B-------------------------2---4---|
G---------------------------------|
D---------------------------------|
A---------------------------------|
E---------------------------------|
Manike mage hithe
muduwe nura hangum yawi


E------0-------------------------|
B--2-2---4-----------------------|
G--------------------------------|
D--------------------------------|
A--------------------------------|
E--------------------------------|
awilewi

E--0-0-0-2-2-4--0-0-0-2-2---0-----|
B-------------------------2---4---|
G---------------------------------|
D---------------------------------|
A---------------------------------|
E---------------------------------|
Neriye nube nage
mage neth eha meha yawi

E------0-------------------------|
B--2-2---4-----------------------|
G--------------------------------|
D--------------------------------|
A--------------------------------|
E--------------------------------|
sihiwewi

E-----0-0-2-0-------------------|
B--2----------2-1-1-1-----------|
G-------------------------------|
D-------------------------------|
A-------------------------------|
E-------------------------------|
Ma hitha langama dawatena

E--0--0-2-0---------------------|
B-----------4-2-4-4-------------|
G-------------------------------|
D-------------------------------|
A-------------------------------|
E-------------------------------|
huru pemaka patalena

E-------------------------------|
B--4-5-4--4-5-4-----------------|
G-------------------------------|
D-------------------------------|
A-------------------------------|
E-------------------------------|

Ruwa nari manahari
E-------------------------------|
B--4--4-5-4-2-0-2-2-------------|
G-------------------------------|
D-------------------------------|
A-------------------------------|
E-------------------------------|
sukumali numba thama


E--0-0-0-2-2-4------------------|
B-------------------------------|
G-------------------------------|
D-------------------------------|
A-------------------------------|
E-------------------------------|

Manike mage hithe

Leave a Reply

Loading...