Mark Lanegan Band – Phantasmagoria Blues tab

On the 16th of February 2012, the track was released, produced by Alain Johannes. The key to the track is on F major.

Mark Lanegan Band - Phantasmagoria Blues tab 1

Track Info

Key Info 

  • Tuning: Standard (E A D G B E)
  • Key:  F
  • BPM: 108
[Intro]
    C     C     C     C
e|---------------------------|
B|---------------------------|
G|------5-----5-----5-----5--|
D|----5-----5-----5-----5----|
A|--3-----3-----3-----3------|
E|---------------------------|
 
[Verse 1]
    C            Bb              F                C
e|-------------------------------------------------------|
B|-------------------------------------------------------|
G|------5------------3--------------------------------5--|
D|----5------------3----------------3---------------5----|
A|--3------------1----------------3---------------3------|
E|------------------------------1------------------------|
    I have given to you jane a torn and tattered love
 
    C                   Bb                  F               C
e|----------------------------------------------------------------|
B|----------------------------------------------------------------|
G|------5-------------------3----------------------------------5--|
D|----5-------------------3---------------------3-------------5---|
A|--3-------------------1---------------------3-------------3-----|
E|------------------------------------------1---------------------|
    But do you hear the tolling bells that ring down from above?
 
    C                      Bb             F               C
e|---------------------------------------------------------------|
B|---------------------------------------------------------------|
G|------5----------------------3------------------------------5--|
D|----5----------------------3----------------3-------------5----|
A|--3----------------------1----------------3-------------3------|
E|----------------------------------------1----------------------|
   Thought I'd rule like charlemagne but I've become corrupt
 
    C               Bb           F             C
e|----------------------------------------------------|
B|----------------------------------------------------|
G|------5---------------3--------------------------5--|
D|----5---------------3--------------3-----------5----|
A|--3---------------1--------------3-----------3------|
E|-------------------------------1--------------------|
   Now I crawl the promenade to fill my empty cup
 
[Chorus]
    Bb    Bb        F     F           C     C
e|-------------------------------------------------|
B|-------------------------------------------------|
G|------3-----3---------------------------5-----5--|
D|----3-----3-----------3-----3---------5-----5----|
A|--1-----1-----------3-----3---------3-----3------|
E|------------------1-----1------------------------|
   And you're free You're free again  One more time
 
[Verse 2]
    C                   Bb             F               C
e|------------------------------------------------------------|
B|------------------------------------------------------------|
G|------5-------------------3------------------------------5--|
D|----5-------------------3----------------3-------------5----|
A|--3-------------------1----------------3-------------3------|
E|-------------------------------------1----------------------|
    Now if you found a razorblade and took it to your wrist
 
    C                   Bb                  F               C
e|-----------------------------------------------------------|
B|-----------------------------------------------------------|
G|------5-------------------3-----------------------------5--|
D|----5-------------------3--------------3--------------5----|
A|--3-------------------1--------------3--------------3------|
E|-----------------------------------1-----------------------|
    Then I'd be here in my electric chair because of this
 
    C                   Bb             F                     C
e|------------------------------------------------------------------|
B|------------------------------------------------------------------|
G|------5-------------------3------------------------------------5--|
D|----5-------------------3----------------3-------------------5----|
A|--3-------------------1----------------3-------------------3------|
E|-------------------------------------1----------------------------|
    All last night and night before I stood on the pier and cried
 
    C                    Bb            F             C
e|----------------------------------------------------------|
B|----------------------------------------------------------|
G|------5--------------------3---------------------------5--|
D|----5--------------------3---------------3-----------5----|
A|--3--------------------1---------------3-----------3------|
E|-------------------------------------1--------------------|
    But I don't want to turn away for fear of going blind
 
[Chorus]
    Bb    Bb        F     F           C     C
e|-------------------------------------------------|
B|-------------------------------------------------|
G|------3-----3---------------------------5-----5--|
D|----3-----3-----------3-----3---------5-----5----|
A|--1-----1-----------3-----3---------3-----3------|
E|------------------1-----1------------------------|
   And you're free You're free again  One more time
 
[Verse 3]
    C            Bb              F                C
e|-------------------------------------------------------|
B|-------------------------------------------------------|
G|------5------------3--------------------------------5--|
D|----5------------3----------------3---------------5----|
A|--3------------1----------------3---------------3------|
E|------------------------------1------------------------|
    I have given to you jane a bruised and beaten love
 
    C                   Bb                  F                 C
e|------------------------------------------------------------------|
B|------------------------------------------------------------------|
G|------5-------------------3------------------------------------5--|
D|----5-------------------3----------------------3--------------5---|
A|--3-------------------1----------------------3--------------3-----|
E|-------------------------------------------1----------------------|
   But do you see the cold white light that shines down from above?
 
    C                      Bb             F               C
e|---------------------------------------------------------------|
B|---------------------------------------------------------------|
G|------5----------------------3------------------------------5--|
D|----5----------------------3----------------3-------------5----|
A|--3----------------------1----------------3-------------3------|
E|----------------------------------------1----------------------|
   Thought I'd rule like charlemagne but I've become corrupt
 
    C               Bb           F             C
e|----------------------------------------------------|
B|----------------------------------------------------|
G|------5---------------3--------------------------5--|
D|----5---------------3--------------3-----------5----|
A|--3---------------1--------------3-----------3------|
E|-------------------------------1--------------------|
   Now I crawl the promenade to fill my empty cup
 
[Chorus]
Bb Bb F F C C e|-------------------------------------------------| B|-------------------------------------------------| G|------3-----3---------------------------5-----5--| D|----3-----3-----------3-----3---------5-----5----| A|--1-----1-----------3-----3---------3-----3------| E|------------------1-----1------------------------| And you're free You're free again One more time
Bb Bb F F C C e|-------------------------------------------------| B|-------------------------------------------------| G|------3-----3---------------------------5-----5--| D|----3-----3-----------3-----3---------5-----5----| A|--1-----1-----------3-----3---------3-----3------| E|------------------1-----1------------------------| And you're free You're free again One more time [Outro] e|------------------------------------------| B|------------------------------------------| G|------5-----5-----5------5-----5-----5----| D|----5-----5-----5-----5------5-----5------| A|--3-----3-----3-----3------3-----3-----3--| E|------------------------------------------|

Leave a Comment

Your email address will not be published.


Scroll to Top