Angel tab by Keshi

On the 25th of March 2022, the track was released, Produced by ​keshi & Elie Rizk.

Angel tab 1

Track Info

Key Info 

  • Tuning: Standard(E A D G B e)
  • Key: F#
e|------------------------------------------------------|
B|------------------------------------------------------|
G|----13b15r-13b15r-13b15r-13b15r-------13-11-11~~~-----|
D|--------------------------------11h13------------13\--|
A|------------------------------------------------------|
E|------------------------------------------------------|
 
e|---------------14-16b18r-------------------------------|
B|-16-14~~~14-16-----------14-16b18r-14-16---------------|
G|-----------------------------------------15~~13\11-11~~|
D|-------------------------------------------------------|
A|-------------------------------------------------------|
E|-------------------------------------------------------|
 
e|------------------------------------------------|
B|------------------------------------------------|
G|-/16~15~/13-------11-------/16~15~13~11~--------|
D|------------11h13----13-11~-------------13-11~--|
A|------------------------------------------------|
E|------------------------------------------------|
 
e|-------------------------------------------------------------------------------------|
B|---------------------------------11-----11-------------------------------------------|
G|-------11-13b15r-13b15r-------11-13b15r-13b15r------11-13/15-13/15-------11~~--------|
D|-11-13------------------11-13------------------11-13----------------11h13-----13\----|
A|-------------------------------------------------------------------------------------|
E|-------------------------------------------------------------------------------------|
 
 
===================
| / Slide up
| \ Slide down
| r Release | b Bend | ~ Vibrato | h Hammer-on ===================

Leave a Comment

Your email address will not be published.


Scroll to Top