Miley Cyrus – Heart Of Glass tab

Heart Of Glass Chords

Track Info

[Chorus]

E|------------------------------------|
B|----9--8--6---9--8------------8--8--|
G|----------------------5---5---------|
D|------------------------------------|
A|------------------------------------|
E|------------------------------------|


E|------------------------------------|
B|-------------------------6----------|
G|---8---7---5------8--7------8-7-5---|
D|------------------------------------|
A|------------------------------------|
E|------------------------------------|

repeat

Leave a Reply

Loading...