Pagsamo tab by Arthur Nery

On the 1st of October 2021, the track was released, Produced by Alex Jon Fernandez.

Pagsamo tab

Track Info

[Verse 1]
 
e|--------------------------------------------------------|
B|--------------------------------------------------------|
G|----------------------0---------------------------------|
D|---------------------------0h2---3p2p0-0h2p0------------|
A|---------------3h5p3-----3------------------------------|
E|-3-3-3-3h5p3h5-----------------x-------x----------------|
 
e|--------------------------------------------------------|
B|--------------------------------------------------------|
G|--------------------------------------------------------|
D|-------3p2p0--0h2p0---1/2-2---0-0-----------------------|
A|---3----------------0---------0----3-3---0-0---3--------|
E|-0---x--------x-------------x----------x-----1---x------|
 
e|--------------------------------------------------------|
B|--------------------------------------------------------|
G|---------------------2p0-----2--------------------------|
D|-------------------------------0---2--3p2-0---2----0----|
A|---------------------------3-------3--------------------|
E|-------------3-3-3--x------------x----x-----0---x--0----|
 
e|--------------------------------------------------------|
B|--------------------------------------------------------|
G|-------------------------------------------0------------|
D|-----3p2-0----------------------------------------------|
A|--3----------3----3--3p0--0--3--------------------------|
E|-----x-----5---x-----x------1---x--3h5-3-3--------------|
 
 
[Chorus]
 
e|--------------------------------------------------------|
B|--------------------------------------------------------|
G|----------------0h2---0-0h2-----------------------------|
D|------0h2-0------------------2-2p0----0h2---------------|
A|--3---3------3---------------------3------0-------------|
E|----x--------x------0----x----0----x--------x-----------|
 
e|--------------------------------------------------------|
B|--------------------------------------------------------|
G|--------------------------0-----------------------------|
D|-----3p2-0--------------------------0h2-0---------------|
A|--3--------------------------3------3-------3-----------|
E|-----x-----1--x--3h5-3-3---------x----------x-----------|
 
e|--------------------------------------------------------|
B|-----------------1-1-1h3-----------1p0------------------|
G|--0h2----0-0h2-0----------2----0-------2-0--------------|
D|--------------------------------------------------------|
A|-----------------------------0--------------------------|
E|-------0----x--0------x----------x---x------1--x--------|
 
e|--------1-0-----1-0--0-----1-0-1-0----------------------|
B|---------------------1-----0-0-0-0--2/3-3---1-----------|
G|--0h2p0-------------------------------------------------|
D|--------------------------------------------------------|
A|-------------3----------------------------0-------------|
E|------------------x---x--0---x-0---x---------x----------|
 
e|-----------------------------1-0-----1-1h3--3-----------|
B|--------1-3------1--------------------------1-----------|
G|--0-0h2--------2-------0h2p0----------------------------|
D|--------------------------------------------------------|
A|-----------------------------------3--------------------|
E|----x--------1------x--------x----------x---x-----------|
 
e|-----1-0-1-0-------------------------------1------------|
B|-----0-0-0-0--2/3-3----1---------1-3----1--1------------|
G|----------------------------0-0h2------2---2------------|
D|-------------------------------------------3------------|
A|--------------------0----------------------3------------|
E|--0----x-0----x----------x--x---------1----1--x---------|
 
 
[Verse2]
 
e|--------------------------------------------------------|
B|----------1-----------1---------------------------------|
G|----0-0h2---0-0-0-0h2-----------------------------------|
D|---------------------------5/3--------------------------|
A|--3------------------------3/1--------------------------|
E|-------------------------x------------------------------|
 
e|------------8p7-----------------------------------------|
B|-----8-8h10-------10p8-8h10-----------------------------|
G|-----9-9---------------------9------7/5-----------------|
D|--------------------------------------------------------|
A|--------------------------------------------------------|
E|---0-----------------------------x----------------------|
 
e|--------------------------------------------------------|
B|------------1--------5/3--------------------------------|
G|-----0-0h2----00-0-0--------0-0------0-0h2--------------|
D|--------------------------------0-0h2------0------------|
A|--0-----------------------------------------------------|
E|---------------------------x------1---------------------|
 
 
 
xxxxxxxxxxxxxxxxxxxx 
| x Dead note
| p Pull-off
| h Hammer-on
| / Slide up | r Release
xxxxxxxxxxxxxxxxxxxx

Leave a Reply

Loading...