Potion Bass Tab by Calvin Harris, Dua Lipa, Young Thug

On the 27th of May 2022, the track was released, produced by Calvin Harris.

Potion Bass Tab by Calvin Harris, Dua Lipa, Young Thug 1

Track Info

Key Info 

  • Tuning: Standard(E A D G)
  • Key: B
  • BPM: 100
[Intro]
 
G|----------------------------------------------------------|
D|-2---4---5---5----4-2---4---5---4---4---4---4-------------|
A|----------------------------------------------------------|
E|----------------------------------------------------------|
 
 
[Pre-Chorus]
 
G|----------------------------------------------------------|
D|-----------P4---------------------------------------------|
A|-2--0h2---------0-2--0------------------------------------| x2
E|-------------------------3--3--2h3---3--0---0-0-2---------|
 
 
[Chorus]
 
G|----------------------------------------------------------|
D|-------------0-2-3-4-2---------------------3--------------|
A|-2---0-2---2-----------2----2--0--------------------------| x2
E|----------------------------------3--3-2h3---0--0--0-2----|

 
 
[Verse 1]
 
G|----------------------------------------------------------|
D|-----------P4---------------------------------------------|
A|-2--0h2---------0-2--0------------------------------------| x2
E|-------------------------3--3--2h3---3--0---0-0-2---------|

 
G|----------------------------------------------------------|
D|-------------0-2-3-4-2---------------------3--------------|
A|-2---0-2---2-----------2----2--0--------------------------| x2
E|----------------------------------3--3-2h3---0--0--0-2----|
 
 
[Pre-Chorus]
 
G|----------------------------------------------------------|
D|----------P4----------------------------------------------|
A|-2--0h2---------0--2--0-----------------------------------| x2
E|-------------------------3--3--2h3---3--0---0-0-2---------|

 
 
[Chorus]
 
G|----------------------------------------------------------|
D|-------------0-2-3-4-2---------------------3--------------|
A|-2---0-2---2-----------2----2--0--------------------------| x2
E|----------------------------------3--3-2h3---0--0--0-2----|

 
 
[Bridge]
 
G|----------------------------------------------------------|
D|----------P4----------------------------------------------|
A|-2--0h2---------0--2--0-----------------------------------|
E|-------------------------3--3--2h3---3--0---0M------------|
 
 
[Pre-Chorus]
 
G|----------------------------------------------------------|
D|----------P4----------------------------------------------|
A|-2x-0h2---------0--2--0-----------------------------------|
E|-------------------------3--3--2h3---3--0---0-0-2---------|
 
G|----------------------------------------------------------|
D|----------P4----------------------------------------------|
A|-2--0h2---------0--2--0-----------------------------------|
E|-------------------------3--3--2h3---3--0---0-0-2---------|
 
 
[Outro]
 
G|----------------------------------------------------------|
D|-------------0-2-3-4-2---------------------3--------------|
A|-2---0-2---2-----------2----2--0--------------------------| x4
E|----------------------------------3--3-2h3---0--0--0-2----|

 
POTION CHORDS 
 
================ 
| h  Hammer-on
| x  Dead note
| P  Pull-off
| M  Mute
================

Leave a Comment

Your email address will not be published.


Scroll to Top