Rihanna – Kiss It Better Tab

On the 28th of January 2016, the track was released, produced by Glass JohnKuk Harrell & Jeff Bhasker.

Kiss It Better

Track Info

Key Info 

  • Tuning: Standard(EADGBE)
  • Key: Eb
  • BPM: 102
[Intro:]

E|-9--7-6-7-9------9-9-9--9-9-7-6-7--------|
B|-----------7~--------------------9~------|
G|-----------------------------------------|
D|-----------------------------------------|
A|-----------------------------------------|
E|-----------------------------------------|

E|-9--7-6-7-9------9-9-9--9-9-7-6-7--------|
B|-----------7~--------------------9~------|
G|-----------------------------------------|
D|-----------------------------------------|
A|-----------------------------------------|
E|-----------------------------------------|




[Chorus:]
“what are you willing to do...” E|-9-9-7-6-7-9------9-9-9--9-9-7-6-7-------| B|------------7~--------------------9~-----| G|-----------------------------------------| D|-----------------------------------------| A|-----------------------------------------| E|-----------------------------------------| E|9--9-9-7-6-7-9------9-9-9--9-9-7-6-7-----| B|--------------7~--------------------9~---| G|-----------------------------------------| D|-----------------------------------------| A|-----------------------------------------| E|-----------------------------------------| ============== | ~ Vibrato ==============

2 thoughts on “Rihanna – Kiss It Better Tab”

Leave a Reply


Scroll to Top