Childish Gambino – Me And Your Mama Tab

On the 10th of November 2016, the track was released, produced by Childish Gambino & Ludwig Göransson.

Childish Gambino - Me And Your Mama Tab 1

Track Info

Key Info 

  • Tuning: Standard (E A D G B e)
  • Key: D
[Verse 1]
e|-------------------------------------------------------------------------|
B|-------------------------------------------------------------------------|
G|-------------------------------------------------------------------------|
D|-------------------------------------------------------------------------| x2
A|-5--------8--------10h12-------12-11-10------8-10-8--------------------3-|
E|----------------------------------------------------10-9-8---------3h5---|
 
e|-------------------------------------------------------------------------|
B|-------------------------------------------------------------------------|
G|-------------------------------------------------------------------------|
D|-------------------------------------------------------------------------|
A|-5--------8--------12----------12-11-10----8-10-8-10-8-------------------|
E|-------------------------------------------------------10-9-8------------|
 
e|-------------------------------------------------------------------------|
B|-------------------------------------------------------------------------|
G|-------------------------------------------------------------------------|
D|-------------------------------------------------------------------------| x2
A|-5--------8--------10h12-------12-11-10------8-10-8--------------------3-|
E|----------------------------------------------------10-9-8---------3h5---|
 
e|-------------------------------------------------------------------------|
B|-------------------------------------------------------------------------|
G|-------------------------------------------------------------------------|
D|-------------------------------------------------------------------------|
A|-5--------8--------12----------12-11-10----8-10-8-10-8-------------------|
E|-------------------------------------------------------10-9-8------------|
 
e|-------------------------------------------------------------------------|
B|-------------------------------------------------------------------------|
G|-------------------------------------------------------------------------|
D|-------------------------------------------------------------------------| x2
A|-5--------8--------10h12-------12-11-10------8-10-8--------------------3-|
E|----------------------------------------------------10-9-8---------3h5---|
 
e|-------------------------------------------------------------------------|
B|-------------------------------------------------------------------------|
G|-------------------------------------------------------------------------|
D|--------------------------------------------5h7-5------------------------|
A|-5--------8--------12----------12-11-10---5-------5-3--------------------|
E|----------------------------------------6--------------------------------| 
 
e|-------------------------------------------------------------------------|
B|-------------------------------------------------------------------------|
G|------------------------------------------------------------------9-10-12|
D|------------------------------------------------------------10-12--------|
A|-5--------8--------12----------12-11-10----8-10-8-8/12---13--------------|
E|-------------------------------------------------------------------------|
 
e|-------------------------------------------------------------------------|
B|-------------------------------------------------------------------------|
G|-------------------------------------------------------------------------|
D|-------------------------------------------------------------------------|
A|-5--------8--------10h12-------12-11-10------8-10-8--------------------3-|
E|----------------------------------------------------10-9-8---------3h5---|
 
e|-------------------------------------------------------------------------|
B|-------------------------------------------------------------------------|
G|-------------------------------------------------------------------------|
D|-------------------------------------------------------------------------|
A|-5--------8--------10h12-------------------------------------------------|
E|-------------------------------------------------------------------------| 
 
[Breakdown]
e|--------------------1-----------------|
B|-11-----------------3-----------------|
G|-10-----------------3-----------------|
D|-12-----------------------------------|
A|-10-----------------3-----------------|
E|--------------------------------------|
 
e|-------------------------------------------------------1-----------------|
B|-6--------10-------13----------13-12-11----------------3-----------------|
G|-5--------9--------12----------12-11-10----------------3-----------------|
D|-7--------10-------14----------14-13-12----------------------------------| x2
A|-5--------8--------12----------12-11-10----------------3-----------------|
E|-------------------------------------------------------------------------|
 
e|-------------------------------------------------------------------------|
B|-6--------10-------13----------13-12-11----------------------------------|
G|-5--------9--------12----------12-11-10----------------------------------|
D|-7--------10-------14----------14-13-12----------------------------------|
A|-5--------8--------12----------12-11-10----------------------------------|
E|-------------------------------------------------------------------------|
 
 
=======================
| /   slide up
| \   slide down
| h   hammer-on
| p   pull-off
| ~   vibrato
| +   harmonic
| x   Mute note
| b   Bend
| pb  Pre-bend
| br  Bend release
| pbr Pre-bend release
| brb Bend release bend
=========================

Leave a Comment

Your email address will not be published.


Scroll to Top