Sia – Snowman Intro Tab

Snowman Tab

Track Info

Key Info

  • Tuning: Standard(EADGBE)
  • Key: C#
  • Capo; 1st fret

SNOWMAN CHORDS

[Pre-Chorus]
 
e|-----------0-------------------------------1-----0h1h0p------------------|
B|--------0-----0--1h3h1p--0-----------0--3-----3----------3--1--1---------|
G|-----1----------------------2--2--0----------------------0---------------|
D|--2----------------------2-----------------0-----------------------------|
A|-----------2-----0-------------------------------3-----------------------|
E|--0-------------------------------3--------------------------------------|
 
e|-----------0------------------------0-------1---0------------------------|
B|--------0-----0--1h3h1p--0----------1---3---3---3------------------------|
G|-----1----------------------2--2----2---2---0---0---0--------------------|
D|--2----------------------2----------3---3--------------------------------|
A|-----------2-----0-------------------------------------------------------|
E|--0-----------------------------------------3---3------------------------|
 
SNOWMAN CHORDS
SNOWMAN TAB

[Chorus] e|-----------0--------------0-----------------0--------------0-------------| B|--------1-----1--------0-----3--1-----0--3-----1--------1-----3----------| G|--0--2-----0-----0--1--------------2--------------0--2-----------0-------| D|--------------------------------------------2----------------------------| A|--3--------------------------2-----0--------------------------3----------| E|--------------------0--------------------------------1-------------------| e|-----------0--------------0-----------------0--------------0-------------| B|--------1-----1--------0-----3--1-----0--3-----1--------1-----3--1-------| G|--0--2-----0-----0--1--------------2--------------0--2-------------------| D|--------------------------------------------2----------------------------| A|--3--------------------------2-----0--------------------------3----------| E|--------------------0--------------------------------1-------------------| e|-----0-------------------------------------------------------------------| B|--3-----1-----1h3--0-----------------------------------------------------| G|-----------0-------------2-----------------------------------------------| D|-------------------------------------------------------------------------| A|--3-------------------2--------------------------------------------------| E|-------------------0-----------------------------------------------------| ******************* | p Pull-off | h Hammer-on *******************

How useful was this post?

Click on a star to rate it!

Average rating 0 / 5. Vote count: 0

No votes so far! Be the first to rate this post.

As you found this post useful...

Follow us on social media!

Leave a Reply


Scroll to Top