Snowman Tab by Sia

Snowman Tab

Track Info

Key Info

  • Tuning: Standard(EADGBE)
  • Key: C#
  • Capo; 1st fret

SNOWMAN CHORDS

[Intro:]
 
e|--------0--------------0--------------0-------3---0--|
B|------1---1----------1---1----------1------1---------|
G|----0-------0------0-------0------0------0------2----|
D|-----------------------------------------------------|
A|--3--------------3--------------3--------------------|
E|-----------------------------------------------------|
 
[Verse 1:]
 
e|-----------0---------------------0---0-------0-------0--|
B|--3--3----------3--3-----3----3----3------3-----3-------|
G|---------2-------------2--------------------------------|
D|--0----0--------0----0-----------------------------0----|
A|--------------------------------------------------------|
E|------------------------------3-----------3-----3-------|
 
e|----------0-------------------------------------------0--|
B|--1-----1------3--3--3--3----3--1------------------------|
G|------0---------------------------2----2--------2--2-----|
D|----2-------------------------------2---------2----------|
A|--3------------3-----3-------0--------------0------------|
E|---------------------------------------------------------|
 
e|------------0----------------------0----0-------0--------0--|
B|--3--3-----------3--3------3----3----3-------3-----3--------|
G|----------2--------------2----------------------------------|
D|--0-----0--------0-----0------------------------------0-----|
A|------------------------------------------------------------|
E|--------------------------------3------------3-----3--------|
 
e|-----------0---------------------------------------------|
B|--1-----1-------3--3--3--3----3--1----------------1p0----|
G|------0----------------------------2---2--------2-----2--|
D|----2--------------------------------2--------2----------|
A|--3-------------3-----3-------0-------------0------------|
E|---------------------------------------------------------|
 
 
[Pre- Chorus]
 
e|--------0----------------------------1-------0h1p1----------|
B|------0---0----1h3p1-0-----------0-3----3-----------3--1-1--|
G|----1-------------------2-2----0----------------------------|
D|--2---------------------------------------------------------|
A|---------------0-----0-----------------------3------3-------|
E|--0----------------------------3----------------------------|
 
e|--------0-----------------------0--------1--0------|
B|------0----0----1h3p1-0---------1---3----0---------|
G|----1--------------------2-2----2--------0---------|
D|--2-----------------------------3--------0---------|
A|----------------0-----0------------------2---------|
E|--0--------------------------------------3------0--| 
 
 SNOWMAN CHORDS 

[Chorus]
e|--------0-----------0----------------0-------------0-------| B|------1---1-------0---3--1------1--3---1---------1---3--1--| G|----0------0----1-------------2----------2----2------------| D|--2-------------------------------------------3------------| A|--3---------------------------0----------------------------| E|----------------0------------------------------------------| e|--------0------------0----------------0-------------0-------| B|------1---1-------0----3--1------1--3---1---------1----3--1-| G|----0------0----1--------------2----------2----2------------| D|--2--------------------------------------------3------------| A|--3----------------------------0----------------------------| E|----------------0-------------------------------------------| e|--0----------------------------------------------------0--0--| B|-------1------3----0--------0----------1------------1--------| G|-----0-------------1-------------2---2---2--------2----------| D|-----------------------------------2-------2----3------------| A|--3-------x------------x---------0---------------------------| E|----------x--------0---x--0----------------------------------| e|--0-------------------------------------------------------------| B|-------1--------3----0---------0-----------1------------1-3--1--| G|-----0---------------1--------------2----2---2--------2---------| D|---------------------------------------2-------2----3-----------| A|--3-------x--3-----------x----------0---------------------------| E|----------x----------0---x--0-----------------------------------| e|---------0--------------0--------------0--------3-----0--| B|-------1---1----------1---1----------1-----1-------------| G|-----0-------0------0-------0------0-----0---------2-----| D|---------------------------------------------------------| A|--3---------------3--------------3-----------------------| E|---------------------------------------------------------| [Verse 2] e|-------------0---------------------0----0-------0-------0--| B|--3--3------------3--3-----3----3----3-------3-----3-------| G|----------2--------------2---------------------------------| D|--0-----0---------0----0------------------------------0----| A|-----------------------------------------------------------| E|--------------------------------3------------3-----3-------| e|-----------0---------------------------------------0--| B|--1-----1-------3--3-3--3----3-1----------------------| G|------0--------------------------2---2--------2-2-----| D|----2------------------------------2--------2---------| A|--3-------------3----3-------0------------0-----------| E|------------------------------------------------------| e|------------0----------------------0----0-------0--------0--| B|--3--3-----------3--3------3----3----3-------3-----3--------| G|----------2--------------2----------------------------------| D|--0-----0--------0-----0------------------------------0-----| A|------------------------------------------------------------| E|--------------------------------3------------3-----3--------| e|----------0------------------------------------------------| B|--1-----1------3--3--3---3----3--1-----------------1p0-----| G|------0----------------------------2----2--------2------2--| D|----2--------------------------------2---------2-----------| A|--3------------3-----3--------0--------------0-------------| E|-----------------------------------------------------------| e|--------0---------------------------------1-------0p1--0-----------| B|------0----0----1h3--1--0-------------0-3----3------------3--1--1--| G|----1----------------------2--2----0-------------------------------| D|--2----------------------------------------------------------------| A|----------------0-------0-------------------------3-------3--------| E|--0--------------------------------3-------------------------------| e|--------0-------------------------0--------1---0------| B|------0----0----1h3--1--0---------1---3----0----------| G|----1----------------------2-2----2--------0----------| D|--2-------------------------------3--------0----------| A|----------------0-------0------------------2----------| E|--0----------------------------------------3-------0--| [Chorus] e|--------0-------------0-----------------0--------------0--------| B|------1---1---------0---3--1-------1-3-----1--------1-----3--1--| G|----0-------0----1--------------2------------2----2-------------| D|--2-----------------------------------------------3-------------| A|--3-----------------------------0-------------------------------| E|-----------------0----------------------------------------------| e|--------0------------0------------------0-------------0-------| B|------1---1--------0---3--1-------1--3-----1--------1---3--1--| G|----0-------0----1-------------2-------------2----2-----------| D|--2-----------------------------------------------3-----------| A|--3----------------------------0------------------------------| E|-----------------0--------------------------------------------| e|--0----------------------------------------------------------0--0--| B|-------1---------3----0----------0-----------1-------------1-------| G|----0-----------------1---------------2----2---2--------2----------| D|-----------------------------------------2-------2----3------------| A|--3-------x--3-------------x----------0----------------------------| E|----------x-----------0----x--0------------------------------------| e|--0-------------------------------------------------------------| B|-------1--------3----0----------0----------1------------1-3--1--| G|-----0---------------1---------------2---2---2--------2---------| D|---------------------------------------2-------2----3-----------| A|--3-------x--3------------x----------0--------------------------| E|----------x----------0----x--0----------------------------------| e|--------0---------------0---------------0--------3----(3)--| B|------1---1-----------1---1-----------1-----1--------------| G|----0-------0------0--------0------0------0----------------| D|-----------------------------------------------------------| A|--3--------------3---------------3-------------------------| E|-----------------------------------------------------------| *********************** | h Hammer-on | p Pull-off | x Dead note | (n) Ghost note ***********************

Leave a Comment

Your email address will not be published.


Scroll to Top