Stray Kids – Behind The Light Intro Tab

The track was released on the 23rd of December 2021.

그림자도 빛이 있어야 존재 (Behind The Light)

Track Info

  • Song: 그림자도 빛이 있어야 존재(Behind The Light)
  • Artist: Stray Kids
  • Release Date: December 23, 2021

e||---------------------------------------------------------------------------|
B||---------3-------------3-------------------3--------------3----------------|
G||------2-----2-------2-----2-------------2-----2-------2------2-------------|
D||--0-------------0------------0---------------------------------------------|
A||-----------------------------------4--------------4--------------4---------|
E||---------------------------------------------------------------------------|
 
e|---------------------------------------------------------------------------||
B|---------------------------------------------------------------------------||
G|---------2-------------2------------------2---------------2----------------||
D|------0-----0-------0-----0------------0-----0--------0------0-------------|| x2
A|--2-------------2------------2---------------------------------------------||
E|-----------------------------------3--------------3--------------3---------||


Leave a Comment

Your email address will not be published.


Scroll to Top