Ween – Push Th Little Daisies Intro Tab

On the 10th of November 1992, the song was released and produced by Ween.

Push th’ Little Daisies

Track Info

  • Song: Push th Little Daisies
  • Artist: Ween
  • Produced by Ween
  • Release Date: November 10, 1992

Key Info

  • Tuning: Standard(EADGBe)
  • Key: G
[Intro & Verses]
 
e|3-3-x-3-x-3-3-x-3-x-3-x-3-\-(1)1-x-1-x-1-1-x-1-x-1-x-1|
B|3-3-x-3-x-3-3-x-3-x-3-x-3-\-(1)1-x-1-x-1-1-x-1-x-1-x-1|
G|3-3-x-3-x-3-3-x-3-x-3-x-3-\-(1)1-x-1-x-1-1-x-1-x-1-x-1|
D|x-x-x-x-x-x-x-x-x-x-x-x-x-x-x-x-x-x-x-x-x-x-x-x-x-x-x-|
A|------------------------------------------------------|
E|------------------------------------------------------|
 
e|/(3)3-x-3-x-3-3-x-3-x-3-x-x-x-x-x-x-x-x-x-x-x-x|
B|/(4)4-x-4-x-4-4-x-4-x-4-x-4-4-4-4-4-4-4-6-4-6-4|
G|/(3)3-x-3-x-3-3-x-3-x-3-x-3-3-3-3-3-3-3-3-3-3-3|
D|x-x-x-x-x-x-x-x-x-x-x-x-x-4-4-4-4-4-4-4-4-4-4-4|
A|-----------------------------------------------|
E|-----------------------------------------------|
 
 [Chorus]
 
e|6-6-6-8-6-3-3-3-3|
B|6-6-6-6-6-2-2-2-2|
G|7-7-7-7-7-x-x-x-x|
D|-----------------|
A|-----------------|
E|-----------------|
 
 
 
===================
| x    Dead note
| (n)  Ghost note
| \    Slide down
| /    Slide up
===================

Leave a Comment

Your email address will not be published.


Scroll to Top