Surf Curse – Sugar Intro tab

On the 30th of March, 2022 the track was released, produced by Chris Coady.

Surf Curse - Sugar Intro tab 1

Track Info

[Intro]
 
e|----------------11-9----------9----------------------------------------|
B|-11-9--7h9--7----------9h11------11-9----------------------------------|
G|----------------------------------------11-----------------------------|
D|-----------------------------------------------------------------------|
A|-----------------------------------------------------------------------|
E|-----------------------------------------------------------------------|
 
e|--------------------11-9----------9------------------------------------|
B|--11--9--9h11-11-----------9h11------11-9------------------------------|
G|--------------------------------------------11-------------------------|
D|-----------------------------------------------------------------------|
A|-----------------------------------------------------------------------|
E|-----------------------------------------------------------------------|
 
 
[Bridge] *repeat main/intro riff before the bridge
 
e|--11--11--9-----------11--11--9---14-----------------------------------|
B|---------------11------------------------------------------------------|
G|-----------------------------------------------------------------------|
D|-----------------------------------------------------------------------|
A|-----------------------------------------------------------------------|
E|-----------------------------------------------------------------------|
 
 
[Outro]
 
e|------------9--------------9-------------9------------9----------------|
B|------9-11-----------9-11----------9-11----------9-11------------------|
G|--11-------------11------------11-------------11-----------------------|
D|-----------------------------------------------------------------------|
A|-----------------------------------------------------------------------|
E|-----------------------------------------------------------------------|
 
e|--11-11--9---------11-11--9-----------11-11--9-------------------------|
B|------------11----------------11-----------------11------11/12---------|
G|--------------------------------------------------------------------11-|
D|-----------------------------------------------------------------------|
A|-----------------------------------------------------------------------|
E|-----------------------------------------------------------------------|
 
 
 
===============
| h  Hammer-on
| /  Slide up
===============

Leave a Comment

Your email address will not be published.


Scroll to Top