Fcpremix tab by The Fall Of Troy

Barrett Jones produced this track, released on the 16th of August 2006. The track is on the A minor key.

Fcpremix tab

Track Info

Key Info 

  • Key: Am
  • BPM: 168
[Solo] echo effect no distortion
e---------------------------------------------------------------------------------------|
B--------------------------------------12b----------------------------------------------|
G-----12--9-----7--5-------12--9-----7-15b----------------------------------------------|
D---10---7-7---5--3-3----10---7-7---5---------------------------------------------------|
A-12----8---8-7--5---5-12----8---8-7----------------------------------------------------|
E---------------------------------------------------------------------------------------|

e---------------------------------------------------------------------------------------|
B------------------------------------5--------------------------------------------------|
G-----12--9-----7--5-------12--9-----7--------------------------------------------------|
D---10---7-7---5--3-3----10---7-7---5---------------------------------------------------|
A-12----8---8-7--5---5-12----8---8-7----------------------------------------------------|
E---------------------------------------------------------------------------------------|

[Verse] with ditortion
e---------------------------------------------------------------------------------------|
B----------------------------------------------------------------------------(7)--------|
G-----12--9-----7--5-------12--9---------------12--9-----7--5-------12--9---------------|
D---10---7-7---5--3-3----10---7-7--777-------10---7-7---5--3-3----10---7-7--7-----------|
A-12----8---8-7--5---5-12----8---8-555-555-12----8---8-7--5---5-12----8---8-5-----------|
E--------------------------------------333----------------------------------------------|

e---------------------------------------------------------------------------------------|
B---------------------------------------------------------------------------------------|
G-----12--9-----7--5-------12--9---------------12--9-----7--5-------12--9---7~----------|
D---10---7-7---5--3-3----10---7-7--777-------10---7-7---5--3-3----10---7-7--------------|
A-12----8---8-7--5---5-12----8---8-555-555-12----8---8-7--5---5-12----8---8-------------|
E--------------------------------------333----------------------------------------------|

e---------------------------------------------------------------------------------------|
B---------------------------------------------------------------------------------------|
G-----12--9-----7--5-------12--9---------------12--9-----7--5-------12--9---------------|
D---10---7-7---5--3-3----10---7-7--777-------10---7-7---5--3-3----10---7-7--------------|
A-12----8---8-7--5---5-12----8---8-555-555-12----8---8-7--5---5-12----8---8-------------|
E--------------------------------------333----------------------------------------------|

[Chorus]
e-----------------------------------------15-----15-----15-----15-----------------------|
B------------------------------------12p13--12p13--12p13--12p13-------------------------|
G-14-12--14-12--14-12--14-12--14-12----------------------------------12------12---------|
D------14-----14-----14-----14-----14----------------------------1415----1415-----------|
A----------------------------------------------------------------------15------15-------|
E---------------------------------------------------------------------------------------|

e--------------------------151715--1715--1715--1715--------15-----15-----15-----15------|
B-----------------15----15-------17----17----17----17-12p13--12p13--12p13--12p13--------|
G-----17----17--------------------------------------------------------------------------|
D-1415--1415--1415--1415----------------------------------------------------------------|
A---------------------------------------------------------------------------------------|
E---------------------------------------------------------------------------------------|

e---------------------------------------------------------------------------------------|
B---------------------------------15----15----------------------------------------------|
G-----12------12------17----17----------------------------------------------------------|
D-1415----1415----1415--1415--1415--1415------------------------------------------------|
A-------15------15----------------------------------------------------------------------|
E---------------------------------------------------------------------------------------|

[Verse]
e---------------------------------------------------------------------------------------|
B---------------------------------------------------------------------------------------|
G-----12--9-----7--5-------12--9---------------12--9-----7--5-------12--9---------------|
D---10---7-7---5--3-3----10---7-7--777-------10---7-7---5--3-3----10---7-7--7b----------|
A-12----8---8-7--5---5-12----8---8-555-555-12----8---8-7--5---5-12----8---8-5b----------|
E--------------------------------------333----------------------------------------------|

e---------------------------------------------------------------------------------------|
B---------------------------------------------------------------------------------------|
G-----12--9-----7--5-------12--9---------------12--9-----7--5-------12--9---------------|
D---10---7-7---5--3-3----10---7-7--777-------10---7-7---5--3-3----10---7-7--7b-5b-------|
A-12----8---8-7--5---5-12----8---8-555-555-12----8---8-7--5---5-12----8---8-5b-3b-------|
E--------------------------------------333----------------------------------------------|

e---------------------------------------------------------------------------------------|
B---------------------------------------------------------------------------------------|
G-----12--9-----7--5-------12--9---------------12--9-----7--5-------12--9---------------|
D---10---7-7---5--3-3----10---7-7--777-------10---7-7---5--3-3----10---7-7--------------|
A-12----8---8-7--5---5-12----8---8-555-555-12----8---8-7--5---5-12----8---8-------------|
E--------------------------------------333----------------------------------------------|

[Chorus]
e-----------------------------------------15-----15-----15-----15-----------------------|
B------------------------------------12p13--12p13--12p13--12p13-------------------------|
G-14-12--14-12--14-12--14-12--14-12----------------------------------12------12---------|
D------14-----14-----14-----14-----14----------------------------1415----1415-----------|
A----------------------------------------------------------------------15------15-------|
E---------------------------------------------------------------------------------------|

e--------------------------151715--1715--1715--1715--------15-----15-----15-----15------|
B-----------------15----15-------17----17----17----17-12p13--12p13--12p13--12p13--------|
G-----17----17--------------------------------------------------------------------------|
D-1415--1415--1415--1415----------------------------------------------------------------|
A---------------------------------------------------------------------------------------|
E---------------------------------------------------------------------------------------|

e---------------------------------------------------------------------------------------|
B---------------------------------15----15----------------------------------------------|
G-----12------12------17----17----------------------------------------------------------|
D-1415----1415----1415--1415--1415--1415------------------------------------------------|
A-------15------15----------------------------------------------------------------------|
E---------------------------------------------------------------------------------------|
[solo] echo effect without distortion e---------------------------------------------------------------------------------------| B---------------------------------------------------------------------------------------| G-----14----17----14----17----12----12--------------------------------------------------| D---15----15----15----15----10----10----------------------------------------------------| A-17----17----17----17----12----12------------------------------------------------------| E---------------------------------------------------------------------------------------| [bridge] with distortion e---------------------------------------------------------------------------------------| B--------------13------------------------------------13---------13----------------------| G------------14--14----------------12--------------14--14-----14--14------12------------| D-14151412-12------1212--12--121214--14-14151412-12------12-12------121214--14----------| A----------------------12--12-----------------------------------------------------------| E---------------------------------------------------------------------------------------| e---------------------------------------------------------------------------------------| B--------------13---------13--------------------------13--------------------------------| G------------14--14-----14--14------12--------------14--14-----14-----------------------| D-14151412-12------12-12------121214--14-14151412-12------12-12--7-7--------------------| A----------------------------------------------------------------5-5-7------------------| E--------------------------------------------------------------------5------------------| e---------------------------------------------------------------------------------------| B----------151718t-151718t--151718t-18t-------------------------------------------------| G--------------------------------------1617t-1617t--------------------------------------| D-14151412------------------------------------------------------------------------------| A---------------------------------------------------------------------------------------| E---------------------------------------------------------------------------------------| e----------------------------------------------------------------------xxxx-------------| B----------------------13----------------------------------------------xxxx-------------| G---5----------------14--14--------------------------------------------xxxx-------------| D--07-7--------2-23212------12--12--------14--1415-13-13-13-13-13/1413-xxxx-------------| A-----5-3530-3-3-------------15--15-12-15--15-----0--0--0--0--0--0--0--xxxx-------------| E----------------------------------------------------------------------xxxx-------------| e---------xxxx---------xxxx---------xxxx------------------------------------------------| B---------xxxx---------xxxx---------xxxx------------------------------------------------| G---------xxxx---------xxxx---------xxxx------------------------------------------------| D----13/1413xxxx-13/1413xxxx-13/1413xxxx-13-13-14-13-13-14-13-13-14---------------------| A-0--0--0-xxxx-0--0--0-xxxx-0--0--0-xxxx-0--0--0--0--0--0--0--0--0----------------------| E---------xxxx---------xxxx---------xxxx------------------------------------------------| e---------------------------------------------------------------------------------------| B---------------------------------------------------------------------------------------| G---------------------------------------------------------------------------------------| D-13--13--14--13--13--14--13--13--14-------13--13--14--13--13--14--13--13--14-----------| A-0-0-0-0-0---0-0-0-0-0---0-0-0-0-0--55-77-0-0-0-0-0---0-0-0-0-0-0-0-0-0-0-0--55-77-----| E------------------------------------33-55------------------------------------33-55-----| e---------------------------------------------------------------------------------------| B---------------------------------------------------------------------------------------| G---------------------------------------------------------------------------------------| D-14p1314p1314p1314p1314p1314p1314p1314p1314p1314p1314p1314p13--------------------------| A---------------------------------------------------------------------------------------| E---------------------------------------------------------------------------------------| e---------------------------------------------------------------------------------------| B--18p1718p1718p1718p1719p1819p1818p1718p1718p1718p1719---------------------------------| G---------------------------------------------------------------------------------------| D---------------------------------------------------------------------------------------| A---------------------------------------------------------------------------------------| E---------------------------------------------------------------------------------------| [chorus] e-----------------------------------------15-----15-----15-----15-----------------------| B------------------------------------12p13--12p13--12p13--12p13-------------------------| G-14-12--14-12--14-12--14-12--14-12----------------------------------12------12---------| D------14-----14-----14-----14-----14----------------------------1415----1415-----------| A----------------------------------------------------------------------15------15-------| E---------------------------------------------------------------------------------------| e--------------------------151715--1715--1715--1715--------15-----15-----15b-15-1715----| B-----------------15----15-------17----17----17----17-12p13--12p13--12p13-----------15--| G-----17----17--------------------------------------------------------------------------| D-1415--1415--1415--1415----------------------------------------------------------------| A---------------------------------------------------------------------------------------| E---------------------------------------------------------------------------------------| e---------------------------------------------------------------------------------------| B-----------------15----15--------------------------------------------------------------| G-----17----17--------------------------------------------------------------------------| D-1415--1415--1415--1415----------------------------------------------------------------| A---------------------------------------------------------------------------------------| E---------------------------------------------------------------------------------------| [outro] e---------------------------------------------------------------------------------------| B---------------------------------------------------------------------------------------| G-----12--9-----7--5-------12--9---------------12--9-----7--5-------12--9---------------| D---10---7-7---5--3-3----10---7-7--777-------10---7-7---5--3-3----10---7-7--7-----------| A-12----8---8-7--5---5-12----8---8-555-555-12----8---8-7--5---5-12----8---8-5-----------| E--------------------------------------333----------------------------------------------|
 

Leave a Reply


Scroll to Top