The Fall Of Troy – Fcpremix tab

Barrett Jones produced this track, released on 16th of August 2006.

Fcpremix tab

Track Info

[Intro] 


e------------------------------------------------------------------7--------|
B---------8---------5--------3-----------------8--------5----3-3------------|
G------5---------5--------0-----------5-----5--------5----------------------|
D---7---------7--------2--------0--3-----7--------7-------------------------|
A---------------------------------------------------------------------------|
E---------------------------------------------------------------------------|

e------------------------------------------------------------------7--------|
B---------8---------5--------3-----------------8--------5----3-3------------|
G------5---------5--------0-----------5-----5--------5----------------------|
D---7---------7--------2--------0--3-----7--------7-------------------------|
A---------------------------------------------------------------------------|
E---------------------------------------------------------------------------|


[verse 1]
with distortion
e---------------------------------------------------------------------------|
B---------8---------5--------3-----------------8--------5-------------------|
G------5---------5--------0-----------5-----5--------5----------------------|
D---7---------7--------2--------0--3-----7--------7--------777--------------|
A----------------------------------------------------------555--555---------|
E---------------------------------------------------------------333---------|



e---------------------------------------------------------------------------|
B---------8---------5--------3-----------------8--------5----3-------12-----|
G------5---------5--------0-----------5-----5--------5----------------------|
D---7---------7--------2--------0--3-----7--------7-------------------------|
A---------------------------------------------------------------------------|
E---------------------------------------------------------------------------|


e---------------------------------------------------------------------------|
B---------8---------5--------3-----------------8--------5-------------------|
G------5---------5--------0-----------5-----5--------5----------------------|
D---7---------7--------2--------0--3-----7--------7--------777--------------|
A----------------------------------------------------------555--555---------|
E---------------------------------------------------------------333---------|


e---------------------------------------------------------------------------|
B---------8---------5--------3-----------------8--------5------3bend--------|
G------5---------5--------0-----------5-----5--------5----------------------|
D---7---------7--------2--------0--3-----7--------7-------------------------|
A---------------------------------------------------------------------------|
E---------------------------------------------------------------------------|


e---------------------------------------------------------------------------|
B---------8---------5--------3-----------------8--------5-------------------|
G------5---------5--------0-----------5-----5--------5----------------------|
D---7---------7--------2--------0--3-----7--------7--------777--------------|
A----------------------------------------------------------555--555---------|
E---------------------------------------------------------------333---------|


e---------------------------------------------------------------------------|
B---------8---------5--------3-----------------8--------5-------------------|
G------5---------5--------0-----------5-----5--------5----------------------|
D---7---------7--------2--------0--3-----7--------7--------77---777777------|
A----------------------------------------------------------55---555555------|
E---------------------------------------------------------------------------|


[Chorus]

e--5-3-0---5-3-0---5-3-0---5-3-0---5-3-0--------15------15------15------15--|
B------------------------------------------12h13---12h13---12h13---12h13----|
G---------------------------------------------------------------------------|
D---------------------------------------------------------------------------|
A---------------------------------------------------------------------------|
E---------------------------------------------------------------------------|


e-------15--0-1-3---0-3-5---0-1-3---0-3-5---0-1-3--------8------8-----------|
B--12h13----------------------------------------------5h6---5h6----5h6------|
G---------------------------------------------------------------------------|
D---------------------------------------------------------------------------|
A---------------------------------------------------------------------------|
E---------------------------------------------------------------------------|


e-----10-----10-------------------------------------------------------------|
B--6h8----6h8----6h8--------------------------------------------------------|
G---------------------------------------------------------------------------|
D---------------------------------------------------------------------------| x2
A---------------------------------------------------------------------------|
E---------------------------------------------------------------------------|


[Verse 2]
e---------------------------------------------------------------------------|
B---------8---------5--------3-----------------8--------5-------------------|
G------5---------5--------0-----------5-----5--------5----------------------|
D---7---------7--------2--------0--3-----7--------7--------777--------------|
A----------------------------------------------------------555--555---------|
E---------------------------------------------------------------333---------|


e---------------------------------------------------------------------------|
B---------8---------5--------3-----------------8--------5------3bend--------|
G------5---------5--------0-----------5-----5--------5----------------------|
D---7---------7--------2--------0--3-----7--------7-------------------------|
A---------------------------------------------------------------------------|
E---------------------------------------------------------------------------|


e---------------------------------------------------------------------------|
B---------8---------5--------3-----------------8--------5-------------------|
G------5---------5--------0-----------5-----5--------5----------------------|
D---7---------7--------2--------0--3-----7--------7--------777--------------|
A----------------------------------------------------------555--555---------|
E---------------------------------------------------------------333---------|


e---------------------------------------------------------------------------|
B---------8---------5--------3-----------------8--------5------3bend 5bend--|
G------5---------5--------0-----------5-----5--------5----------------------|
D---7---------7--------2--------0--3-----7--------7-------------------------|
A---------------------------------------------------------------------------|
E---------------------------------------------------------------------------|


e---------------------------------------------------------------------------|
B---------8---------5--------3-----------------8--------5-------------------|
G------5---------5--------0-----------5-----5--------5----------------------|
D---7---------7--------2--------0--3-----7--------7--------777--------------|
A----------------------------------------------------------555--555---------|
E---------------------------------------------------------------333---------|



e---------------------------------------------------------------------------|
B---------8---------5--------3-----------------8--------5-------------------|
G------5---------5--------0-----------5-----5--------5----------------------|
D---7---------7--------2--------0--3-----7--------7--------77---777777------|
A----------------------------------------------------------55---555555------|
E---------------------------------------------------------------------------|


[Chorus]

e--5-3-0---5-3-0---5-3-0---5-3-0---5-3-0--------15------15------15------15--|
B------------------------------------------12h13---12h13---12h13---12h13----|
G---------------------------------------------------------------------------|
D---------------------------------------------------------------------------|
A---------------------------------------------------------------------------|
E---------------------------------------------------------------------------|


e-------15--0-1-3---0-3-5---0-1-3---0-3-5---0-1-3--------8------8-----------|
B--12h13----------------------------------------------5h6---5h6----5h6------|
G---------------------------------------------------------------------------|
D---------------------------------------------------------------------------|
A---------------------------------------------------------------------------|
E---------------------------------------------------------------------------|


e-----10-----10-------------------------------------------------------------|
B--6h8----6h8----6h8--------------------------------------------------------|
G---------------------------------------------------------------------------|
D---------------------------------------------------------------------------|x2
A---------------------------------------------------------------------------|
E---------------------------------------------------------------------------|


delay back on
e-------5---8--5------5---8--5----------------------------------------------|
B-----5---5---------5---5-----------5--8--5-----5-6-5-----------------------|
G---7-------------7---------------5--5--------------------------------------| once
D-------------------------------7-------------------------------------------|
A---------------------------------------------------------------------------|
E---------------------------------------------------------------------------|


e-------5---8--5------5---8--5----------------------------------------------|
B-----5---5---------5---5-----------5--8--5-----5-6-5-----------------------|
G---7-------------7---------------5--5--------------------------------------|
D-------------------------------7-------------------------------------------| x4
A---------------------------------------------------------------------------|
E---------------------------------------------------------------------------|


e---5-xxxxx-5-xxxxx---xxxxx-------------------------------------------------|
B---5-xxxxx-5-xxxxx-5-xxxxx-5----5-6-5--------------------------------------|
G---7-xxxxx-7-xxxxx-5-xxxxx-5-----------------------------------------------|
D-----xxxxx---xxxxx-7-xxxxx-7-----------------------------------------------|
A-----xxxxx---xxxxx---xxxxx-------------------------------------------------|
E-----xxxxx---xxxxx---xxxxx-------------------------------------------------|


e------5--10131313131310----5--10131313131310-------------------------------|
B------5----------------13--5----------------13---5--10131313131310-----565-|
G------7--------------------7---------------------5----------------13-------|
D-------------------------------------------------7-------------------------|
A---------------------------------------------------------------------------|
E---------------------------------------------------------------------------|


e---------------------------------------------------------8-----------------|
B-------------------------------------------------------6---6---------------|
G-----------5--------------------------------------7777-------7777--5-7-5---|
D---------3---3-----------------------3----2-3-2----------------------------|
A---55555--------55555-3-5-3--------3---3-----------------------------------|
E-----------------------------55555-----------------------------------------|


e---------------------------------------------------------------------------|
B---------6-5----5-6-5------------------------------------------------------|
G-------5----------------------8--let ring for a while---8------------------|
D--7777------------------------7--let ring for a while---7------------------|
A---------------------------------------------------------------------------|
E---------------------------------------------------------------------------|


Breakdown

e---------------------------------------------------------------------------|
B---------------------------------------------------------------------------|
G--8-let ring for a while---8---------8-let ring for a while---8------------|
D--7-let ring for a while---7---------7-let ring for a while---7------------|
A---------------------------------------------------------------------------|
E---------------------------------------------------------------------------|


e--------xxx-------xxx-------xxx-------xxx---x-x----x-x----x----------------|
B
--------xxx-------xxx-------xxx-------xxx---x-x----x-x----x----------------|
G--8h9-8-xxx-8h9-8-xxx-8h9-8-xxx-8h9-8-xxx--8x8x9--8x8x9--8x8-9--pick slide-|
D--7-----xxx-7-----xxx-7-----xxx-7-----xxx--7x7x7--7x7x7--7x7-7-------------|
A--------xxx-------xxx-------xxx-------xxx---x-x----x-x----x----------------|
E--------xxx-------xxx-------xxx-------xxx---x-x----x-x----x----------------|


e---------------------------------------------------------------------------|
B---------------------------------------------------------------------------|
G--8-----8----9------8------8-------9-------8-------8-------9---------------|
D--7-----7----7------7------7-------7-------7-------7-------7-----44---777--|
A-----------------------------------------------------------------33---666--|
E-----0-----0----------0------0-----------------0-------0---------22---555--|


e---------------------------------------------------------------------------|
B---------------------------------------------------------------------------|
G--8-----8----9------8------8-------9-------8-------8-------9---------------|
D--7-----7----7------7------7-------7-------7-------7-------7-----44---777--|
A-----------------------------------------------------------------33---666--|
E-----0-----0----------0------0-----------------0-------0---------22---555--|


[solo]

e---------------------------------------------------------------------------|
B---------------------------------------------------------------------------|
G--8-0-8-0-8-0-8-0-8-0-9-0-9-0-8-0-8-0-8-0-8-0-8-0-9-0-9--------------------|
D----------------------------------------------------------44---777---------|
A----------------------------------------------------------33---666---------|
E----------------------------------------------------------22---555---------|


e---------------------------------------------------------------------------|
B---------------------------------------------------------------------------|
G--19-0-19-0-19-0-19-0-19-0--20-0-20--19-0-19-0-19-0-19-0-19-0-20-0-20------|
D---------------------------------------------------------------------------|
A---------------------------------------------------------------------------|
E---------------------------------------------------------------------------|


e---------------------------------------------------------------------------|
B---------------------------------------------------------------------------|
G---------------------------------------------------------------------------|
D--44---777-----------------------------------------------------------------|
A--33---666-----------------------------------------------------------------|
E--22---555-----------------------------------------------------------------|


[Chorus]

e--5-3-0---5-3-0---5-3-0---5-3-0---5-3-0--------15------15------15------15--|
B------------------------------------------12h13---12h13---12h13---12h13----|
G---------------------------------------------------------------------------|
D---------------------------------------------------------------------------|
A
---------------------------------------------------------------------------|
E---------------------------------------------------------------------------|


e-------15--0-1-3---0-3-5---0-1-3---0-3-5---0-1-3--------8------8-----------|
B--12h13----------------------------------------------5h6---5h6----5h6------|
G---------------------------------------------------------------------------|
D---------------------------------------------------------------------------|
A---------------------------------------------------------------------------|
E---------------------------------------------------------------------------|


e-----10-----10-------------------------------------------------------------|
B--6h8----6h8----6h8--------------------------------------------------------|
G---------------------------------------------------------------------------|
D---------------------------------------------------------------------------| x2
A---------------------------------------------------------------------------|
E---------------------------------------------------------------------------|


[Outro]

e---------------------------------------------------------------------------|
B---------8---------5--------3-----------------8--------5-------------------|
G------5---------5--------0-----------5-----5--------5----------------------|
D---7---------7--------2--------0--3-----7--------7--------777--------------|
A----------------------------------------------------------555--555---------|
E---------------------------------------------------------------333---------|


e---------------------------------------------------------------------------|
B---------8---------5--------3-----------------8--------5---------3---------|
G------5---------5--------0-----------5-----5--------5----------------------|
D---7---------7--------2--------0--3-----7--------7-------------------------|
A---------------------------------------------------------------------------|
E---------------------------------------------------------------------------|

Leave a Reply

Loading...